Cifra Club

Plano B

Lucas Lucco

Cifra: Principal
exibições 189.311
Tom: A
(Bm,D,A,E) (2x)

(Sanfona)


E|--------------------------------------
A|--------------------------------------
D|--------------------------------------
G|------7-6-4---------------------------
B|--7-5---------------------------------
E|--------------------------------------


(Guitarra)


E|--------------------------------------
A|--------------------------------------
D|--------------------------------------
G|--4-7-4---4-7-4-4s7-7-7-7-7-7-7-7-----
B|--------------------------------------
E|--------------------------------------


(Sanfona)


E|--------------------------------------
A|--------------------------------------
D|-----7h4------7h4-----7h4--4s7-7-7-7-7
G|-7-5------7-5-----7-5-----------------
B|--------------------------------------
E|--------------------------------------


(Guitarra)


E|-------------------------------------
A|-------------------------------------
D|-------------------------------------
G|-------------------------------------
B|-4-7-4---4-7-4--4s7-7-7-7-7-7-7-7----
E|-------------------------------------



(Sanfona)


E|--------------------------------------
A|--------------------------------------
D|-----7h4------7h4---------------------
G|-7-5------7-5-------5-3-2-0-----------
B|--------------------------------------
E|--------------------------------------




Bm                    D
Meu plano sempre foi ter um relacionamento
A
sério com você
E                        Bm
E conquistar seu coração te levar lá em casa
D                  A
te apresentar Para os meus pais
E
tomar sorvete e dar a mão
Bm                D                       A
Coisa da imaginação você não tá querendo se amarrar
E
Só tá afim de curtição
Bm                             D           A
Ainda bem que eu tenho o plano a e o Plano b
                   E                        Bm
O plano c nunca existiu não vou chorar por você

Refrão:
Bm                   D                    A
Eu já tentei o plano a o plano de amar você falhou
E                          Bm
Agora eu vou tentar o plano b
Bm                   D                    A
Eu já tentei o plano a o plano de amar você falhou
E                          Bm
Agora eu vou tentar o plano b
Bm
Eu vou, eu vou
D                     A    E
Eu vou tentar o plano b, beber até te esquecer!
Acordes para:
    Colaboração e revisão:
    • Matheus Viana
    • Jeaan
    • Wallace Freitas

    0 comentários

      mostrar mais comentários

      Conseguiu tocar?

      37tocaram1ainda não

      Grave um vídeo tocando Plano B e mande pra gente!

      00:00 / 00:00
      outros vídeos desta música
      repetirqualidadeautomática
      Outro vídeos desta música
        00:00 / 00:00
        automática
        OK