Cifra Club

Saudade Idiota

Lucas Lucco

Cifra: Principal (violão e guitarra)
exibições 161.987
Tom: Bb (forma dos acordes no tom de A) Capotraste na 1ª casa
[Intro]  A  E  Bm  D

E|----------------------------------------------------|
B|----------------------------------------------------|
G|-9-9-7-7-6-6-4-4-2-2-2---2/4------------------------|
D|-----------------------4----------------------------|
A|----------------------------------------------------|
E|----------------------------------------------------|

E|----------------------------------------------------|
B|----------------------------------------------------|
G|-7-7-6-6-4-4-2-2-2-2-2---2/4------------------------|
D|-----------------------4----------------------------|
A|----------------------------------------------------|
E|----------------------------------------------------|

E|----------------------------------------------------|
B|--------------------------3-2-4---------------------|
G|-7-7-6-6-4-4-2-2------2h4---------------------------|
D|------------------2h4-------------------------------|
A|----------------------------------------------------|
E|----------------------------------------------------|

A                       E
Ah! Tem coisas que não dá
              Bm
Pra passar batido
            D
E ser esquecido assim

     A
Pois é
                                E
Talvez eu seja uma pessoa qualquer
                      Bm
Que durou mais que o combinado
                D
Nesse seu jogo tão fechado

        F#m
Fiquei mal
                                  C#m
Mas de qualquer forma isso foi o sinal
                              Bm
E você me fala que tudo é normal
                              D
Me pede desculpa não foi sua culpa
Tá tudo legal

 F#m
Pois é
                                C#m
Se o tempo que cura ele tá demorando
                            Bm
Saudade idiota só vai aumentando
                         D
Deus me ajuda que eu tô pirando
Eu tô pirando

A                                 E
  Seu número de celular é fácil apagar
                                          Bm
As coisas que me deu eu também posso quebrar

Mas dentro do meu coração tem foto sua
 D                    E
Tem saudade sua espalhada por todo lugar

A                       E
Ah! Tem coisas que não dá
              Bm
Pra passar batido
            D
E ser esquecido assim

     A
Pois é
                                E
Talvez eu seja uma pessoa qualquer
                      Bm
Que durou mais que o combinado
                D
Nesse seu jogo tão fechado

        F#m
Fiquei mal
                                  C#m
Mas de qualquer forma isso foi o sinal
                              Bm
E você me fala que tudo é normal
                              D
Me pede desculpa não foi sua culpa
Tá tudo legal

 F#m
Pois é
                                C#m
Se o tempo que cura ele tá demorando
                            Bm
Saudade idiota só vai aumentando
                         D
Deus me ajuda que eu tô pirando
Eu tô pirando

A                                 E
  Seu número de celular é fácil apagar
                                          Bm
As coisas que me deu eu também posso quebrar

Mas dentro do meu coração tem foto sua
 D                    E
Tem saudade sua espalhada por todo lugar

A                                 E
  Seu número de celular é fácil apagar
                                          Bm
As coisas que me deu eu também posso quebrar

Mas dentro do meu coração tem foto sua
 D                    E
Tem saudade sua espalhada por todo lugar

A                                 E
  Seu número de celular é fácil apagar
                                          Bm
As coisas que me deu eu também posso quebrar

Mas dentro do meu coração tem foto sua
 D                    E
Tem saudade sua espalhada por todo lugar

A                                 E
  Seu número de celular é fácil apagar
                                          Bm
As coisas que me deu eu também posso quebrar

Mas dentro do meu coração tem foto sua
 D                    E
Tem saudade sua espalhada por todo lugar
Acordes para:

    0 comentários

      mostrar mais comentários

      Conseguiu tocar?

      24tocaram0ainda não

      Grave um vídeo tocando Saudade Idiota e mande pra gente!

      00:00 / 00:00
      outros vídeos desta música
      repetirqualidadeAutomático
      Outro vídeos desta música
        00:00 / 00:00
        OK