Cifra Club

Saudade Idiota

Lucas Lucco

Cifra: Principal
exibições 154.806
Tom: A
[Intro]  A  E  Bm  D

[Solo]

E|-------------------------------------------|
B|-------------------------------------------|
G|-------------------------------------------|
D|--15-15--13-13-12-12-10-10-8-8-8----10-----|
A|----------------------------------8--------|
E|-------------------------------------------|

E|-------------------------------------------|
B|-------------------------------------------|
G|-------------------------------------------|
D|-13-13-12-12-10-10-8-8-8---10--------------|
A|-------------------------8-----------------|
E|-------------------------------------------|

E|-------------------------------------------|
B|-------------------------------------------|
G|-------------------------------------------|
D|13-13-12-12-10-8-8------8h10-10s13-12-13s15|
A|-------------------8h10--------------------|
E|-------------------------------------------|

A                       E
Ah! Tem coisas que não dá
              Bm
Pra passar batido
            D
E ser esquecido assim

     A
Pois é
                                E
Talvez eu seja uma pessoa qualquer
                      Bm
Que durou mais que o combinado
                D
Nesse seu jogo tão fechado

        F#m
Fiquei mal
                                  C#m
Mas de qualquer forma isso foi o sinal
                              Bm
E você me fala que tudo é normal
                              D
Me pede desculpa não foi sua culpa
Tá tudo legal

 F#m
Pois é
                                C#m
Se o tempo que cura ele tá demorando
                            Bm
Saudade idiota só vai aumentando
                         D
Deus me ajuda que eu tô pirando
Eu tô pirando

A                                 E
  Seu número de celular é fácil apagar
                                          Bm
As coisas que me deu eu também posso quebrar
Mas dentro do meu coração tem foto sua

 D                    E
Tem saudade sua espalhada por todo lugar
Acordes para:

    0 comentários

      mostrar mais comentários

      Conseguiu tocar?

      23tocaram0ainda não

      Grave um vídeo tocando Saudade Idiota e mande pra gente!

      00:00 / 00:00
      outros vídeos desta música
      repetirqualidadeautomática
      Outro vídeos desta música
        00:00 / 00:00
        automática
        OK