Cifra Club

Simples Desejo

Luciana Mello

Cifra: Principal
exibições 261.124
Tom: A#
Intro 2x: C7M  C7M(9)  Eb7M(9)  F7M(9)

   C7M            C7M(9)
E|------------------------------------------|
B|-8--8--x--------8--8---8--8---------------|
G|-9--9--x--------7--7---7--7---------------|
D|-9--9--x---x----9--9---9--9----x----------|
A|------------------------------------------|
E|-8-----x--------8------x-----x------------|

   Eb7M(9)        F7M(9)
E|-6--6-----------8--8---8--8---------------|
B|-6--6--x--------8--8---8--8---------------|
G|-7--7--x--------9--9---9--9---------------|
D|-8--8--x---x---10-10--10-10----x----------|
A|-6-----x--------8------------x------------|
E|-------x---------------x------------------|


Solo:
E|---3---3-----1-----1--------------------------------|
B|----------------------------------------------------|
G|-5---4-----3----2-----------------------------------|
D|----------------------------------------------------|
A|----------------------------------------------------|
E|----------------------------------------------------|



Primeira Parte:

     C7M  C7M(9)
Que tal         
Eb7M(9)  F7M(9)       C7M  C7M(9)
  Abrir  a porta do dia
Eb7M(9)   F7M(9)         C7M  C7M(9)
  Entrar sem pedir licença
Eb7M(9)  F7M(9)      C7M  C7M(9)
  Sem parar pra pensar 
           Eb7M  F7M
Pensar em nada

   C7M  C7M(9)
Legal 
Eb7M(9)  F7M(9)      C7M  C7M(9)
  Ficar sorrindo à toa
Eb7M(9)    F7M(9)          C7M  C7M(9)
  Sorrir pra qualquer pessoa
Eb7M(9)  F7M(9)      C7M  C7M(9)
  Andar sem rumo na rua

( Eb7M(9)  F7M(9) )

Segunda Parte:

   C7M            C7M(9)
E|------------------------------------------|
B|-8--8--x--------8--8---8--8---------------|
G|-9--9--x--------7--7---7--7---------------|
D|-9--9--x---x----9--9---9--9----x----------|
A|------------------------------------------|
E|-8-----x--------8------x-----x------------|

   Cm7            C4
E|------------------------------------------|
B|-8--8--x--------8--8---8--8---------------|
G|-8--8--x-------10-10--10-10---------------|
D|-8--8--x---x---10-10--10-10----x----------|
A|------------------------------------------|
E|-8-----x--------8------x-----x------------|


  C7M     C7M(9)
Pra viver        e pra ver 
    Cm7        C4
Não é preciso muito
C7M      C7M(9)
Atençao,        a lição
   Cm7        C4
Está em cada gesto
 C7M       C7M(9)
Tá no mar,        tá no ar
     Cm7       C4
No brilho dos seus olhos
C7M           C7M(9)
Eu não quero tudo de uma vez
Eb7M(9)           F7M(9)
  Eu só tenho um simples desejo


Refrão:

C7M        C7M(9)
  Hoje eu só quero 
        Eb7M(9)    F7M(9)
Que o dia termine bem
C7M        C7M(9)
  Hoje eu só quero 
        Eb7M(9)    F7M(9)
Que o dia termine muito bem

C7M        C7M(9)
  Hoje eu só quero 
        Eb7M(9)    F7M(9)
Que o dia termine bem
C7M        C7M(9)
  Hoje eu só quero 
        Eb7M(9)    F7M(9)
Que o dia termine muito bem


Repete a Primeira Parte:

   C7M  C7M(9)
Legal 
Eb7M(9)  F7M(9)      C7M  C7M(9)
  Ficar sorrindo à toa
Eb7M(9)    F7M(9)          C7M  C7M(9)
  Sorrir pra qualquer pessoa
Eb7M(9)  F7M(9)      C7M  C7M(9)
  Andar sem rumo na rua

( Eb7M(9)  F7M(9) )


Repete a Segunda Parte:

  C7M     C7M(9)
Pra viver        e pra ver 
    Cm7        C4
Não é preciso muito
C7M      C7M(9)
Atençao,        a lição
   Cm7        C4
Está em cada gesto
 C7M       C7M(9)
Tá no mar,        tá no ar
     Cm7       C4
No brilho dos seus olhos
C7M           C7M(9)
Eu não quero tudo de uma vez
Eb7M(9)           F7M(9)
  Eu só tenho um simples desejoo


Repete o Refrão:

C7M        C7M(9)
  Hoje eu só quero 
        Eb7M(9)    F7M(9)
Que o dia termine bem
C7M        C7M(9)
  Hoje eu só quero 
        Eb7M(9)    F7M(9)
Que o dia termine muito bem

C7M        C7M(9)
  Hoje eu só quero 
        Eb7M(9)    F7M(9)
Que o dia termine bem
C7M        C7M(9)
  Hoje eu só quero 
        Eb7M(9)    F7M(9)
Que o dia termine muito bem


Terceira Parte - Solo:
1
E|----------------------------------------------------|
B|-------------------------------------------------7~-|
G|--------------------5-x-5~-------------------5---7~-|
D|-7-7--5---7-7-5-6-7--------7-7-5---7-7-5-6-7--------|
A|----------------------------------------------------|
E|----------------------------------------------------|

2
E|----------------------------------------------------|
B|---------------------------------------6-8/10-------|
G|------------------5-x-5~--7b8r7--5-7-8--------5~----|
D|-7-7—5-7-7-5-6-7------------------------------------|
A|----------------------------------------------------|
E|----------------------------------------------------|


Base: Am7(11)
      Cm7  Eb13  F7(9)  (2x)


Repete o Refrão:

C7M        C7M(9)
  Hoje eu só quero 
        Eb7M(9)    F7M(9)
Que o dia termine bem
C7M        C7M(9)
  Hoje eu só quero 
        Eb7M(9)    F7M(9)
Que o dia termine muito bem

C7M        C7M(9)
  Hoje eu só quero 
        Eb7M(9)    F7M(9)
Que o dia termine bem
C7M        C7M(9)
  Hoje eu só quero 
        Eb7M(9)    F7M(9)
Que o dia termine muito bem
C7M        C7M(9)
  Hoje eu só quero 
        Eb7M(9)    F7M(9)
Que o dia termine bem
Acordes para:

    0 comentários

      mostrar mais comentários

      Conseguiu tocar?

      17tocaram0ainda não

      Grave um vídeo tocando Simples Desejo e mande pra gente!

      00:00 / 00:00
      outros vídeos desta música
      repetirqualidadeautomática
      Outro vídeos desta música
        00:00 / 00:00
        automática
        Capítulos
        • Tocando a Música
        • Dicas Iniciais / Equipamentos
        • Acordes da Introdução e Primeira Parte
        • Tocando a Introdução e Primeira Parte
        • Ensinando a Introdução e Primeira Parte
        • Acordes da Segunda Parte
        • Tocando a Segunda Parte
        • Ensinando a Segunda Parte
        • Tocando o Refrão
        • Encerramento
        • Ficha Técnica
        OK