Cifra Club

Mirate en mi

Lucybell

Cifra: Principal (violão e guitarra)
Selo Cifra Club: esta cifra foi revisada para atender aos critérios oficiais da nossa Equipe de Qualidade.
tom: Ebm
  E  F#m   F 
E|--------------|
B|-----3-----1--|
G|--1--4-----2--|
D|--2--5-----3--|
A|--2--5-----3--|
E|-----3-----1--|


E 
En dos palabras creo ser
E 
El que demora el paso como el sol (dias)

E|------------|
B|------------|
G|---6----6/4-|
D|------------|
A|------------|
E|------------|

E 
cuando te abres veo la luz
E 
La que demora cuando debe iluminar (dias)

E  F 

Fm 
Siente mi alma muda
                      F 
siente que no se nada

E 
En dos palabras creo ser

E|------------|
B|------------|
G|---6----6/4-|
D|------------|
A|------------|
E|------------|

E 
El que se quiebra cuando ve gritar(vida)

E|----------------|
B|---------------4|
G|---6----6/4--4--|
D|----------------|
A|----------------|
E|----------------|

E 
Cuando me crees veo la luz
E|------------|
B|------------|
G|---6----6/4-|
D|------------|
A|------------|
E|------------|

E 
La que demora cuando debe iluminar (vida)


E  F  F#m 

F#m 
Siente mi alma muda
Siente que no se nada
Yo veo magia atenta
Mírate en mi

Solo:
E|--------------------------------------------------|
B|---5h4--5h4--5h4--5h4--5h4--5h4--5h4--5h4--5h4-----|
G|---------------------------------------------------|
D|-----------16/14-----16/18-----16/18-----16/18-----|
A|---------------------------------------------------|
E|---------------------------------------------------|



E  F  F#m 

F#m 
Siente mi alma muda
Siente que no se nada
Yo veo magia atenta
Mírate en mi

E 

E  F 
F#m 
Siente mi alma muda
Soy un payaso niño

E      E  F  F#m 
Mirame

E|-----------------------------------------|
B|------------------------4h5---4h5----4h5-|
G|-----------------------4-----4------4----|
D|-----------------------------------------|
A|-1-1-2-3-3-5-5-7-7-8---------------------|
E|-----------------------------------------|
Outros vídeos desta música
    26 exibições
      • ½ Tom
      • Am
      • Bbm
      • Bm
      • Cm
      • C#m
      • Dm
      • Ebm
      • Em
      • Fm
      • F#m
      • Gm
      • G#m
    • Adicionar à lista

    Afinação da cifra

    Afinador online

      0 comentários

      Ver todos os comentários

      Conseguiu tocar?

      0Tocaram0Ainda não

      Grave um vídeo tocando Mirate en mi e nos envie!

      Toque também

      1. Imagem do artista Los BunkersNada Nuevo Bajo El Sol Los Bunkers
      2. Imagem do artista Los TresAmor Violento Los Tres
      3. Imagem do artista Los PrisionerosParamar Los Prisioneros
      4. Imagem do artista La LeyMentira La Ley

      Entre para o Cifra Club PRO

      Tenha acesso a benefícios exclusivos no App e no Site

      • Chega de anúncios

      • Badges exclusivas

      • Mais recursos no app do Afinador

      • Atendimento Prioritário

      • Aumente seu limite de lista

      • Ajude a produzir mais conteúdo

      Cifra Club Pro

      Aproveite o Cifra Club com benefícios exclusivos e sem anúncios
      Cifra Club Pro
      Aproveite o Cifra Club com benefícios exclusivos e sem anúncios
      OK