Cifra Club

Aprenda

Ode To Joy

Ludwig Van Beethoven

Cifra: Principal (violão e guitarra)
Já pensou em usar uma coleção de roupas do Cifra Club? Responda as perguntas abaixo e nos ajude nessa missão! →
tom: C
                                     
   C               G                Am              C      G             
e|-0---0---1---3---3---1---0------|-------------0---0----------------|
B|-----------------------------3--|-1---1---3-----------3---3--------|
G|--------------------------------|----------------------------------|
D|--------------------------------|----------------------------------|
A|-3------------------------------|0---------------3-----------------|
E|-----------------3--------------|------------------------3---------|
                                                                                 
       C           G                Am              G       C               
e|-0---0---1---3---3---1---0------|-------------0--------------------|
B|-----------------------------3--|-1---1---3-------3---1---1--------|
G|--------------------------------|----------------------------------|
D|--------------------------------|----------------------------------|
A|-----3--------------------------|-0-----------------------3--------|
E|------------------3-------------|-----------------3----------------|
                                                                       
   G               G                G               Am      G             
e|---------0-----------0-1-0------|-----0-1-0------------------------|
B|-3---3-------1---3-----------1--|-3-----------3---1---3------------|
G|--------------------------------|-------------------------0--------|
D|--------------------------------|----------------------------------|
A|--------------------------------|-----------------0----------------|
E|-3---------------3--------------|-3-----------------------3--------|

   C               G                Am              G       C              
e|-0---0---1---3---3---1---0------|-------------0--------------------|
B|-----------------------------3--|-1---1---3-------3---1---1--------|
G|--------------------------------|----------------------------------|
D|--------------------------------|----------------------------------|
A|-3------------------------------|-0-----------------------3--------|
E|-----------------3--------------|-----------------3----------------|
Composição de Friedrich Schiller
Colaboração e revisão:
  • Jeferson Braga
  • Élison Duarte
37.803 exibições
    • ½ Tom
    • A
    • Bb
    • B
    • C
    • Db
    • D
    • Eb
    • E
    • F
    • F#
    • G
    • Ab
  • Adicionar à lista

    0 comentários

    Ver todos os comentários

    Conseguiu tocar?

    29 Tocaram 5 Ainda não

    Grave um vídeo tocando Ode To Joy e nos envie!

    00:00 / 00:00
    Outros vídeos desta música
    Repetir Qualidade Automático
    Outros vídeos desta música
    00:00 / 00:00
    Automático

    Cifra Club Pro

    Aproveite o Cifra Club com benefícios exclusivos e sem anúncios
    Cifra Club Pro
    Aproveite o Cifra Club com benefícios exclusivos e sem anúncios
    OK