Cifra Club

Nunca foi Sorte

Luísa Sonza

Cifra: Principal (violão e guitarra)
Selo Cifra Club: esta cifra foi revisada para atender aos critérios oficiais da nossa Equipe de Qualidade.
tom: E
[Intro] G#m  F#

      G#m                 F#
Quem disse que futebol é coisa pra menino?
      G#m                       F#
Quem disse que azul é a cor que ele tem que usar?
     G#m                   F#
Um homem que é homem de verdade cria um filho
    G#m                    F#
Mostrando pra ele o que a vida tem pra dar

      G#m                 F#
Não quero cumplicidade, mas quero respeito
    G#m                 F#
A porta do carro não precisa abrir pra mim
  G#m                           F#
Porque se ele quer que o filho seja um bom sujeito
  G#m                         F#
Joga o machismo fora, abre a mente e faz assim

E|------------------------------------------|
B|------------------------------------------|
G|---------------------------------9--------|
D|--6-6-6-6-6-4-6-8-9-9-9-9-9----9---11-11--|
A|----------------------------11------------|
E|------------------------------------------|

E|------------------------------------------|
B|------------------------------------------|
G|------------------------------------------|
D|-11-11-11-9----9-11-----------------------|
A|------------11----------------------------|
E|------------------------------------------|

E|------------------------------------------|
B|------------------------------------------|
G|---------------------------------9--------|
D|--6-6-6-6-6-4-6-8-9-9-9-9-9----9---11-11--|
A|----------------------------11------------|
E|------------------------------------------|

E|------------------------------------------|
B|------------------------------------------|
G|------------------------------------------|
D|-11-11-11-9----9-11-11-11-----------------|
A|------------11----------------------------|
E|------------------------------------------|

 G#m
Dança, rebola, requebra
 F#
Empina essa bunda, vai até o chão
 C#m
Não liga pra o que eles falam
 E
Não para, não para, não para

Ai, não para, não

 G#m
Mexe, remexe, se joga embaixo
 F#
Em cima, pra lá e pra cá
 C#m
Vai no passinho, vai no quadradinho
 E
Pra frente, pra trás, onde o som te levar

 G#m                   F#
Pede, se não ouvir, repete
              C#m
Se não der, pondere
                E
Quebre o gelo, ponha-se no seu lugar
 G#m                  F#
Mostre que nunca foi sorte
             C#m
Que além de forte
          E
É talento, é dom, ninguém pode tirar

 G#m                   F#
Pede, se não ouvir, repete
              C#m
Se não der, pondere
                E
Quebre o gelo, ponha-se no seu lugar
 G#m                  F#
Mostre que nunca foi sorte
             C#m
Que além de forte
          E
É talento, é dom, ninguém pode tirar

( G#m  F# )

      G#m                 F#
Quem disse que futebol é coisa pra menino?
      G#m                       F#
Quem disse que azul é a cor que ele tem que usar?
     G#m                   F#
Um homem que é homem de verdade cria um filho
    G#m                    F#
Mostrando pra ele o que a vida tem pra dar

      G#m                 F#
Não quero cumplicidade, mas quero respeito
    G#m                 F#
A porta do carro não precisa abrir pra mim
  G#m                           F#
Porque se ele quer que o filho seja um bom sujeito
  G#m                         F#
Joga o machismo fora, abre a mente e faz assim

E|------------------------------------------|
B|------------------------------------------|
G|---------------------------------9--------|
D|--6-6-6-6-6-4-6-8-9-9-9-9-9----9---11-11--|
A|----------------------------11------------|
E|------------------------------------------|

E|------------------------------------------|
B|------------------------------------------|
G|------------------------------------------|
D|-11-11-11-9----9-11-----------------------|
A|------------11----------------------------|
E|------------------------------------------|

E|------------------------------------------|
B|------------------------------------------|
G|---------------------------------9--------|
D|--6-6-6-6-6-4-6-8-9-9-9-9-9----9---11-11--|
A|----------------------------11------------|
E|------------------------------------------|

E|------------------------------------------|
B|------------------------------------------|
G|------------------------------------------|
D|-11-11-11-9----9-11-11-11-----------------|
A|------------11----------------------------|
E|------------------------------------------|

 G#m
Dança, rebola, requebra
 F#
Empina essa bunda, vai até o chão
 C#m
Não liga pra o que eles falam
 E
Não para, não para, não para

Ai, não para, não

 G#m
Mexe, remexe, se joga embaixo
 F#
Em cima, pra lá e pra cá
 C#m
Vai no passinho, vai no quadradinho
 E
Pra frente, pra trás, onde o som te levar

 G#m                   F#
Pede, se não ouvir, repete
              C#m
Se não der, pondere
                E
Quebre o gelo, ponha-se no seu lugar
 G#m                  F#
Mostre que nunca foi sorte
             C#m
Que além de forte
          E
É talento, é dom, ninguém pode tirar

 G#m                   F#
Pede, se não ouvir, repete
              C#m
Se não der, pondere
                E
Quebre o gelo, ponha-se no seu lugar
 G#m                  F#
Mostre que nunca foi sorte
             C#m
Que além de forte
          E
É talento, é dom, ninguém pode tirar
Outros vídeos desta música
1.635 exibições
    • ½ Tom
    • A
    • Bb
    • B
    • C
    • Db
    • D
    • Eb
    • E
    • F
    • F#
    • G
    • Ab
  • Adicionar à lista

Afinação da cifra

Afinador online

    0 comentários

    Ver todos os comentários

    Entre para o Cifra Club PRO

    Tenha acesso a benefícios exclusivos no App e no Site

    • Chega de anúncios

    • Mais recursos no app do Afinador

    • Atendimento Prioritário

    • Aumente seu limite de lista

    • Ajude a produzir mais conteúdo

    Cifra Club Pro

    Aproveite o Cifra Club com benefícios exclusivos e sem anúncios
    Cifra Club Pro
    Aproveite o Cifra Club com benefícios exclusivos e sem anúncios
    OK