Cifra Club

Aprenda

Magrelinha

Luiz Melodia

Cifra: Principal (violão e guitarra)
Tom: C
Intro:
1ª guitarra
|-----(7)----|-------------|----------|
|--------(7)-|-5/6/5---5---|----------|
|--(7)-------|-------7---5-|----------|
|------------|-------------|----------|
|------------|-------------|----------|
|------------|-------------|----------|

2ª Guitarra
                  Am  D   G
|-----------------5-------7---5----|--5---5---5---5--|
|-----------------5---7---8---5----|--5---7---8---7--|
|-----------------5---7------------|--5---5---5---5--|
|-----------------7---7------------|--7---7---7---7--|
|-----------------7----------------|--7---7---7---7--|
|--0--3--0--3--5--5----------------|--5---5---5---5--|


riff 1
  Am
|--5---------------------5---|
|--5---------------------6---|
|--5---------------------5---|
|--7------------7--------7---|
|--7--7~~-8--10---10--9--8---|
|--5-------------------------|
  Am                     F                     G           G   G#º
O por do sol     vai renovar brilhar de novo o seu sorriso

|--5---7---5--5-----1--------------1-------------1---------1------3--1---3--1---0---------|
|--5---8---5--5-----1--------------1-------------1---------1------3--1---3--1---0---------|
|--5----------------2--------------2-------------2---------2------4--2---4--2---1---------|
|--7----------------3--------------3-------------3---------3------5--3---5--3---2---------|
|--7----------------3------------3-3-------------3-------3-3------5--3---5--3---2---------|
|--5-------------------------------1-----------1-----------1------3--1---3--1---0--2-3-4--|
  Am                F/C            F           F/C         F      G  F   G  F   E7
E libertar      da areia preta e do arco-íris cor de sangue, cor de sangue, cor de sangue ... 
Am         F                                G 
O beijo meu vem com melado decorado cor de rosa 
Am                    F
O sonho seu vem dos lugares mais distantes terras dos gigantes Super Homem, super mosca 
                              E7 
Super Carioca, super eu, super eu ... 

|--0-----------0--------0---------3-|
|--1-----------1--------1---------3-|
|--0-----------0--------2---------0-|
|--2-----------2--------3---------0-|
|--3------------------------------2-|
|---------------------------------3-|

   C           Am7      F         G 
Deixa tudo em forma é melhor não ser 
   C           Am7      F         G 
Não tem mais perigo digo já não sei 
   C           Am7      F         G 
Ela está comigo sonha o sol não sei

|--1--5--3-------3---6--5-|--1--5--3-------3---6--5-|
|--1-------------3--------|--1-------------3--------|
|--2-------------4--------|--2-------------4--------|
|--3-------------5--------|--3-------------5--------|
|--3-------------5--------|--3-------------5--------|
|--1-------------3--------|--1-------------3--------|

   F             G            F           G 
O sol      não advinha     baby é magrelinha 
F          G       F           G 
O sol não adivinha baby é magrelinha 

Bb              C 
No coração do Brasil 
                D 
No coração do Brasil 
Bb               C 
No coração, no coração 
                  D 
No coração do Brasil 
Bb                C 
No coração, no coração 
                  D 
No coração do Brasil
Composição de Luíz Melodia
Colaboração e revisão:
  • José Terra
  • Vinicius Souza
66.995 exibições
    • ½ Tom
    • A
    • Bb
    • B
    • C
    • Db
    • D
    • Eb
    • E
    • F
    • F#
    • G
    • Ab
  • Adicionar à lista

    0 comentários

    Mostrar mais comentários

    Conseguiu tocar?

    1 Tocaram 3 Ainda não

    Grave um vídeo tocando Magrelinha e mande pra gente!

    00:00 / 00:00
    outros vídeos desta música
    repetir qualidade Automático
    Outros vídeos desta música
    00:00 / 00:00
    Automático

    Cifra Club Pro

    Aproveite o Cifra Club com benefícios exclusivos e sem anúncios
    7 dias grátis
    Cifra Club Pro
    Aproveite o Cifra Club com benefícios exclusivos e sem anúncios
    7 dias grátis
    OK