Cifra Club

Inamorável

Luiza e Maurílio

Cifra: Principal (violão e guitarra)
tom: Em
[Intro] C9  G  D  Em7

E|-------3-2-2-0-0--------------------------|
B|-----3-----------3-3----------------------|
G|-2/4------------------2h4-----------------|
D|------------------------------------------|
A|------------------------------------------|
E|------------------------------------------|

E|------------------------------------------|
B|-----3-3----------------------------------|
G|-2/4-----4-4\2-0-2-2/4-2-0----------------|
D|---------------------------2--------------|
A|------------------------------------------|
E|------------------------------------------|

[Primeira Parte]

                C9
Vi que você viajou
                G
Cada dia num lugar
                      D
Parece que o meu processo
                         Em7
De esquecer tá mais devagar

                      C9
E pensar que eu levantei
                       G
Pra não ser mandado embora
                    D
Porque se não fosse isso
                      Em7
Eu tava na cama até agora

[Pré-Refrão]

              C9
Eu não tô grilado
                        G
Pelo fato de já ter alguém
                  D
Não te quero infeliz
                       Em7
Só queria tá feliz também

[Refrão]

          C9
Eu tô tentando
                   G
Outra boca goela abaixo
           D                  Em7
Mas ultimamente eu tô inamorável

          C9
Eu tô tentando
                 G
Superar o insuperável
                 D
Mas depois de você
            Em7
Eu tô inamorável

          C9
Eu tô tentando
                   G
Outra boca goela abaixo
           D                Em7
Mas ultimamente eu tô inamorável

          C9
Eu tô tentando
                 G
Superar o insuperável
                 D
Mas depois de você
              Em7
Eu tô inamorável

[Solo] C9  G  D  Em7

E|-------3-2-2-0-0--------------------------|
B|-----3-----------3-3----------------------|
G|-2/4------------------2h4-----------------|
D|------------------------------------------|
A|------------------------------------------|
E|------------------------------------------|

E|------------------------------------------|
B|-----3-3----------------------------------|
G|-2/4-----4-4\2-0-2-2/4-2-0----------------|
D|---------------------------2--------------|
A|------------------------------------------|
E|------------------------------------------|

[Pré-Refrão]

              C9
Eu não tô grilado
                        G
Pelo fato de já ter alguém
                  D
Não te quero infeliz
                       Em7
Só queria tá feliz também

[Refrão]

          C9
Eu tô tentando
                   G
Outra boca goela abaixo
           D                  Em7
Mas ultimamente eu tô inamorável

          C9
Eu tô tentando
                 G
Superar o insuperável
                 D
Mas depois de você
            Em7
Eu tô inamorável

          C9
Eu tô tentando
                   G
Outra boca goela abaixo
           D                Em7
Mas ultimamente eu tô inamorável

          C9
Eu tô tentando
                 G
Superar o insuperável
                 D
Mas depois de você
              Em7
Eu tô inamorável

[final] C9  G  D  Em7

E|-------3-2-2-0-0--------------------------|
B|-----3-----------3-3----------------------|
G|-2/4------------------2h4-----------------|
D|------------------------------------------|
A|------------------------------------------|
E|------------------------------------------|

E|------------------------------------------|
B|-----3-3----------------------------------|
G|-2/4-----4-4\2-0-2-2/4-2-0----------------|
D|---------------------------2--------------|
A|------------------------------------------|
E|------------------------------------------|
00:00 / 00:00
Outros vídeos desta música
Repetir
Outros vídeos desta música
Composição de Diego Silveira / Junior Pepato / LARI FERREIRA / Rafa Borges
Colaboração e revisão:
  • Thiago Almeida
  • Raffael Uascar
21.660 exibições
    • ½ Tom
    • Am
    • Bbm
    • Bm
    • Cm
    • C#m
    • Dm
    • Ebm
    • Em
    • Fm
    • F#m
    • Gm
    • G#m
  • Adicionar à lista

    0 comentários

    Ver todos os comentários

    Conseguiu tocar?

    0 Tocaram 0 Ainda não

    Grave um vídeo tocando Inamorável e nos envie!

    Entre para oCifra Club PRO

    Tenha acesso a benefícios exclusivos no App e no Site

    • Chega de anúncios

    • Prioridade de compra em lançamentos

    • Mais recursos no app do Afinador

    • Atendimento Prioritário

    • Descontos nos produtos Cifra Club

    • Ajude a produzir mais conteúdo

    00:00 / 00:00

    Cifra Club Pro

    Aproveite o Cifra Club com benefícios exclusivos e sem anúncios
    Cifra Club Pro
    Aproveite o Cifra Club com benefícios exclusivos e sem anúncios
    OK