Cifra Club

Última Vez

Luiza e Maurílio

Cifra: Principal (violão e guitarra)
tom: Ebm (forma dos acordes no tom de Dm) Capotraste na 1ª casa
[Intro] Dm  A/C#  Bb2

E|------------------------------------------|
B|-6-6-6p5-3-5h6--5-5\3-3-3h5---------------|
G|------------------------------------------|
D|------------------------------------------|
A|------------------------------------------|
E|------------------------------------------|

E|------------------------------------------|
B|-6/8-8\6--3p1-1/3-------------------------|
G|------------------------------------------|
D|------------------------------------------|
A|------------------------------------------|
E|------------------------------------------|

[Primeira Parte]

      Dm
E aí cê gostou?
               A/C#
Foi bom pra você?
              Bb2
Diz aí se alguém pega beira comigo
  
Na hora de te dar prazer

           Dm                        A/C#
O quarto quase que virou de ponta cabeça
              Bb2
Eu fiz de um jeito
                       Bbm7
Pra que nunca mais esqueça
    Gm               F/A     Bb2   
Tá curioso e quer saber porque?

[Refrão]

                Gm
E foi a última vez
            Bb2
Aproveitou bem?
            Dm
Foi a despedida
               C
Nunca mais na vida!
              Gm
Foi a última vez
                  Bb2
Dá tchau pro meu corpo
            Dm
Foi a despedida
               C
Nunca mais na vida
    Gm        
E quando se deitar com aquelazinha
          F/A
Aí quero ver
Bb2               C
    Se ela faz metade do que fiz com você

[Solo] Gm  Bb2  Dm  C
       Gm  Bb2  Dm  C

E|------------------------------------------|
B|-5h6-5---5h6--5h6-5---5h6-----------------|
G|-------7------------7---------------------|
D|------------------------------------------|
A|------------------------------------------|
E|------------------------------------------|

E|------------------------------------------|
B|-5h6-5--------5h6-5-----------------------|
G|-------7------------7---------------------|
D|---------5/7----------5-------------------|
A|------------------------------------------|
E|------------------------------------------|

E|------------------------------------------|
B|-5h6-5---5h6--5h6-5---5h6-----------------|
G|-------7------------7---------------------|
D|------------------------------------------|
A|------------------------------------------|
E|------------------------------------------|

E|------------------------------------------|
B|-5h6-5--------5h6-5-----------------------|
G|-------7------------7---------------------|
D|---------5/7----------5-------------------|
A|------------------------------------------|
E|------------------------------------------|

[Primeira Parte]

      Dm
E aí cê gostou?
               A/C#
Foi bom pra você?
              Bb2
Diz aí se alguém pega beira comigo
  
Na hora de te dar prazer

           Dm                        A/C#
O quarto quase que virou de ponta cabeça
              Bb2
Eu fiz de um jeito
                       Bbm7
Pra que nunca mais esqueça
    Gm               F/A     Bb2   
Tá curioso e quer saber porque?

[Refrão]

                Gm
E foi a última vez
            Bb2
Aproveitou bem?
            Dm
Foi a despedida
               C
Nunca mais na vida!
              Gm
Foi a última vez
                  Bb2
Dá tchau pro meu corpo
            Dm
Foi a despedida
               C
Nunca mais na vida
    Gm        
E quando se deitar com aquelazinha
          F/A
Aí quero ver
Bb2               C
    Se ela faz metade 

                Gm
E foi a última vez
            Bb2
Aproveitou bem?
            Dm
Foi a despedida
               C
Nunca mais na vida!
              Gm
Foi a última vez
                  Bb2
Dá tchau pro meu corpo
            Dm
Foi a despedida
               C
Nunca mais na vida
    Gm        
E quando se deitar com aquelazinha
          F/A
Aí quero ver
Bb2               C
    Se ela faz metade do que eu fiz com você

[Final] Gm  Bb2  Dm  C
        Gm  Bb2  Dm  C

E|------------------------------------------|
B|-5h6-5---5h6--5h6-5---5h6-----------------|
G|-------7------------7---------------------|
D|------------------------------------------|
A|------------------------------------------|
E|------------------------------------------|

E|------------------------------------------|
B|-5h6-5--------5h6-5-----------------------|
G|-------7------------7---------------------|
D|---------5/7----------5-------------------|
A|------------------------------------------|
E|------------------------------------------|
00:00 / 00:00
Outros vídeos desta música
Repetir
Outros vídeos desta música
Composição de Henrique Tranquero / Moura / Tunico
Colaboração e revisão:
  • Thiago Almeida
1.120 exibições
    • ½ Tom
    • Am
    • Bbm
    • Bm
    • Cm
    • C#m
    • Dm
    • Ebm
    • Em
    • Fm
    • F#m
    • Gm
    • G#m
  • Adicionar à lista

    0 comentários

    Ver todos os comentários

    Conseguiu tocar?

    0 Tocaram 0 Ainda não

    Grave um vídeo tocando Última Vez e nos envie!

    Entre para oCifra Club PRO

    Tenha acesso a benefícios exclusivos no App e no Site

    • Chega de anúncios

    • Prioridade de compra em lançamentos

    • Mais recursos no app do Afinador

    • Atendimento Prioritário

    • Descontos nos produtos Cifra Club

    • Ajude a produzir mais conteúdo

    00:00 / 00:00

    Cifra Club Pro

    Aproveite o Cifra Club com benefícios exclusivos e sem anúncios
    Cifra Club Pro
    Aproveite o Cifra Club com benefícios exclusivos e sem anúncios
    OK