Cifra Club

Aprenda

Ainda É Tudo Seu

Luiza Possi

Cifra: Completa (violão e guitarra)
tom: A
Intro 2x: Bm  A  G
E|--------------------------------
B|--------------------------------
G|---7--9--6-6h7-6----------6-----
D|------------------7--7s9--------
A|--------------------------------
E|--------------------------------


Bm                  A             G
Ainda tenho tantas coisas pra te dizer e saber.
Bm                 A                   E
Você que sempre me ganha antes de me perder me faz ver.
Bm                A                   G
Em cada melodia e letra que eu vou escrever tem você.
Bm          A                  E
Sua boca me leva aonde vou me perder

Refrão:
D              G      A
Mesmo se não for pra sempre
F#             Bm
Volto pra te buscar
A           G           A
Mesmo que eu siga em frente
    F#         Bm    A
Um dia vou te levar,
         E   D
Mas não vá.
G             A          Bm
Ainda é tudo seu aqui é tudo seu.

Ponte:  Bm  A  G
E|------------------------------------------------
B|----------------------------------10h12---------
G|---7--9--6-6h7-6-------------9h11--------11-----
D|------------------7--7s9------------------------
A|------------------------------------------------
E|------------------------------------------------


Bm                 A                G
As horas vivem com pressa eu ando devagar.
E|--------------------------------
B|--3--3h5p3----------------------
G|-------------------2-2h4--------
D|------------0h2p0----------4----
A|--------------------------------
E|--------------------------------


Bm             A                    E
Segredos moram comigo eu gosto de contar, pro céu.
E|--5p2-------------------------
B|--------5p4-------------------
G|--------------4p2--2h4--------
D|------------------------2s4---
A|------------------------------
E|------------------------------


Bm                     A             G
A vida inteira é muito pouco só pra começar desvendar.
E|--5s7--------------
B|--------3hp5--5s7--
G|-------------------
D|-------------------
A|-------------------
E|-------------------


Bm                   A                       E
E quando os olhos se esquentam, eu perco a direção e a razão.
E|-----------------
B|-----------------
G|--------9s11-9---
D|-----------------
A|-----------------
E|-----------------


Refrão:
D              G      A
Mesmo se não for pra sempre
F#             Bm
Volto pra te buscar
A           G           A
Mesmo que eu siga em frente
    F#         Bm    A
Um dia vou te levar,
         E   D
Mas não vá.
G             A          Bm
Ainda é tudo seu aqui é tudo seu.
Solo:
E|-----------------------------------------------------------------------------------------------
B|----------------------7--9--b10---10p9p7-10s12--------10--12p10----------------------10b12r10--
G|-------5-7s14--9--7-----------------------------9s11--------------11p9s7----10b11r9------------
D|--s9-------------------------------------------------------------------------------------------
A|-----------------------------------------------------------------------------------------------
E|-----------------------------------------------------------------------------------------------

E|--17-b19--17-19-21-b22-21--19--------------------------------------17-----------------------------------------------
B|-------------------------------b19r17p15-17b19--15--17--19--17b19------17b19r17p15-17b19----------------------------
G|------------------------------------------------------------------------------------------16b18r16---14b16--14b16---
D|--------------------------------------------------------------------------------------------------------------------
A|--------------------------------------------------------------------------------------------------------------------
E|--------------------------------------------------------------------------------------------------------------------


Refrão:
D              G      A
Mesmo se não for pra sempre
F#             Bm
Volto pra te buscar
E|---s7--------------------
B|------10p7---------------
G|------------9s11--9s7----
D|----------------------9--
A|-------------------------
E|-------------------------


A           G           A
Mesmo que eu siga em frente
    F#         Bm    A
Um dia vou te levar,
E|------------------
B|------------------
G|------------------
D|------------7--9--
A|---------7--------
E|---s10------------


         E   D
Mas não vá.
E|----------------------
B|----------------------
G|--9s11p10p9s7-9p7-----
D|------------------9---
A|----------------------
E|----------------------


G             A          Bm
Ainda é tudo seu aqui é tudo seu.
E|---12b14r12b14--14r12p10--12p10-------
B|---------------------------------12---
G|--------------------------------------
D|--------------------------------------
A|--------------------------------------
E|--------------------------------------

é tudo seu
E|---10-------------------------
B|--------10p7--10p7--5s7---5---
G|------------------------------
D|------------------------------
A|------------------------------
E|------------------------------
Composição de Jamaica / Luiza Possi
Colaboração e revisão:
  • Di Pascali
2.771 exibições
    • ½ Tom
    • A
    • Bb
    • B
    • C
    • Db
    • D
    • Eb
    • E
    • F
    • F#
    • G
    • Ab
  • Adicionar à lista

    0 comentários

    Ver todos os comentários

    Conseguiu tocar?

    0 Tocaram 1 Ainda não

    Grave um vídeo tocando Ainda É Tudo Seu e nos envie!

    00:00 / 00:00
    outros vídeos desta música
    repetir qualidade Automático
    Outros vídeos desta música
    00:00 / 00:00
    Automático

    Cifra Club Pro

    Aproveite o Cifra Club com benefícios exclusivos e sem anúncios
    Cifra Club Pro
    Aproveite o Cifra Club com benefícios exclusivos e sem anúncios
    OK