Cifra Club

Já É

Lulu Santos

Cifra: Principal
exibições 73.883
Tom: G
CORRGINDO PEQUENOS ERROS DESTA OTIMA MUSICA, TODOS OS CREDITOS AO CARA QUE TIROU ELA QUASE EM CIMA.

INTRO:

e|--------7-------7---------------10--9--5/---14~~-
B|--------8-------8-----------8----------7/---15~~--
G|--------9-------9--------9----9--------6/---16~~--
D|---------------------------------------7/---------
A|---------------------------------------5-/--------
E|-------------------------------------------------

solo da harmonia

e|----------------------------------------------------
B|----------------------------------------------------
G|---11~~---9-11b--11---9--11--6---7--9--6---6h7h4----
G|----------------------------------------------------
A|----------------------------------------------------
E|----------------------------------------------------

Em7(9) 
sei lá...
tem dias que a gente olha prá si
                             D7M
e se pergunta se é mesmo isso aí
que a gente achou que ia ser
          D#°     Em7(9) 
quando a gente crescer
e nossa história de repente ficou
                           D7M
alguma coisa que alguém inventou
a gente não se reconhece ali
                 D#° Em7(9) F#7(b13) F#7 B7/4/9 B7/4
no oposto de um déjà vu

Em7(9) 
sei lá
tem tanta coisa que a gente não diz
                         D7M
e se pergunta se anda feliz
                             D7M  D#°     Em7(9)
com o rumo que a vida tomou, no trabalho e no amor
se a gente é dono do proprio nariz
                         D7M
ou o espelho é que se transformou
 
a gente não se reconhece alí
D#° Em7(9)               F#7(b13) F#7 B7/4/9 B7/4
no oposto de um Dejavú 

                  G7M D7M
por isso eu quero mais
                  G7M D7M
naõ dá pra ser depois
                   G7M F#7(b13)
do que ficou pra trás
        F#7  B4/7/9  B7/4
na hora do já é!


AGora tá certinho, a musica parece ter mais notas mas não se engane com o lulu, ele é malandro, podes
 ver os clipes, ele toca sempre G7M e não G7M/B conforme o amigo tinha posto, note tambem
 que sao duas guitarras tocando, a clean do lulu, a da intro e um sintetizador fazendo a harmonia.
Depois mantém somente a guitarra clean dele, se vocês olharem os clipes no youtube perceberão que as 
notas tÊm a enfase nas cordas agudas, agora a tab do amigo aí merece 5 estrelas, bons sons a todos!

Acordes para:
    Composição: Lulu SantosColaboração e revisão:
    • Morgan Sobrenome

    0 comentários

      mostrar mais comentários

      Conseguiu tocar?

      5tocaram0ainda não

      Grave um vídeo tocando Já É e mande pra gente!

      00:00 / 00:00
      outros vídeos desta música
      repetirqualidadeautomática
      Outro vídeos desta música
        00:00 / 00:00
        automática
        OK