Cifra Club

For Love

Lush

Cifra: Principal (violão e guitarra)
Selo Cifra Club: esta cifra foi revisada para atender aos critérios oficiais da nossa Equipe de Qualidade.
tom: C#m
E - C  E - C  E - E


C#m                     G#m
PD TTY LITTLE GIRL, SHE SHINES
                F#m          B
KNOWING SHE IS YOUNG, SHE SE LES
C#m                G#m
HAPPY JUST TO BE A PRIZE
              F#m       B
HAPPY JUST TO SEE HIM SE LE

(same as 1st verse)
B LLY LITTLE GIRL, SHE TRIES
THINKING SHE IS GOOD AND WISE
CE SN'T DC OGNIZE THE LIES
POURING FROM HER LIPS SHE BG HS

C#m          B (ON THE 7TH FD T)
THIS IS SO DA L
C#m          B (ON THE 7TH FD T)
IT'S WHAT I FEEL
C#m            G#m            F#m          B
I LOOK IN YOUR EYES AND LOSE MYSELF

(same as first verse)
B LLY LITTLE GIRL DENIES
NEVER UNDERSTANDING WHY
HER FCE  IS FULL OF SAD SURPRISE
EVERY TIME SHE HEARS HIM CRY

C#m          B (ON THE 7TH)
WHAT C  YOU FEEL
C#m          B (ON THE 7TH)
WHEN YOU'D  WITH ME
C#m             G#m          F#m        B
I LOOK IN YOUR EYES AND SEE MYSELF

C#m
BUT THED 'S NO CONNECTION
G#
JUST HIS OWN DF LECTION
C              D              E                 C
ISN'T THIS THE WAY YOU WANTED ME  (WHAT C  YOU MEAN?)
E                                               C
IN LOVE WITH YOU                  (WHAT C  I FEEL?)
E                                               C
C  ANYTHING                       (WHAT C  YOU MEAN?)
E                                              C
FOR YOU


[Solo]
(Also play this first line at the end of the song)
E|-0-0-----0------------------------12-12-----0-------------------------------|
B|------12---12--13-13-12--12-13-12--------12---12-13-13-12----12-13-12-------|
G|----------------------------------------------------------------------------|
D|----------------------------------------------------------------------------|
A|----------------------------------------------------------------------------|
E|----------------------------------------------------------------------------|

E|-------10----10--------------------------10----10--------------------12-12--|
B|-10-10----10----13-13-12--12-13-12-10-10----10----13-13-12--12-13-12--------|
G|----------------------------------------------------------------------------|
D|----------------------------------------------------------------------------|
A|----------------------------------------------------------------------------|
E|----------------------------------------------------------------------------|

C#m               G#m             F#m            B
SHE LOOKED IN HIS EYES TO LOSE HERSELF

(same as first verse)
AND WHEN IT F LLS APART, SHE CRIES
CE SNT THINK TO LOOK INBDE 
SHE JUST COVERS UP HER EYES
CE SN'T SEE HER OWN DISQUISE

C#m
AND THEN SHE FEELS THIS SORROW
G#
IT WILL FDE  TOMORROW
C                     D                 E
SHE'LL PD TEND THAT THIS WAS DA LLY LOVE  (WHAT C  YOU MEAN)
(E - C ALTERNATING)
SHE'LL MAKE THEIR F LL                    (WHAT DID I FEEL)
SEEM BEAUTIFUL                            (WHAT C  YOU MEAN)
SHE WON'T DMEMBE R THIS AT ALL            (WHAT C  YOU MEAN)
SHE WON'T DCA LL                          eTC.
THE TRUTH AT ALL
SHE WANTS TO F LL
AGAIN
Outros vídeos desta música
    178 exibições
      • ½ Tom
      • Am
      • Bbm
      • Bm
      • Cm
      • C#m
      • Dm
      • Ebm
      • Em
      • Fm
      • F#m
      • Gm
      • G#m
    • Adicionar à lista

    Afinação da cifra

    Afinador online

      0 comentários

      Ver todos os comentários

      Conseguiu tocar?

      0Tocaram0Ainda não

      Grave um vídeo tocando For Love e nos envie!

      Toque também

      1. Imagem do artista RideParalysed Ride
      2. Imagem do artista MedicineTika Dan Saat Ini Medicine
      3. Imagem do artista ChapterhouseIf You Want Me Chapterhouse
      4. Imagem do artista Sing-singHalal A Majra Sing-sing

      Entre para o Cifra Club PRO

      Tenha acesso a benefícios exclusivos no App e no Site

      • Chega de anúncios

      • Badges exclusivas

      • Mais recursos no app do Afinador

      • Atendimento Prioritário

      • Aumente seu limite de lista

      • Ajude a produzir mais conteúdo

      Cifra Club Pro

      Aproveite o Cifra Club com benefícios exclusivos e sem anúncios
      Cifra Club Pro
      Aproveite o Cifra Club com benefícios exclusivos e sem anúncios
      Ops (: Contenido disponible sólo en portugués.
      OK