Cifra Club

Last Night

Lush

Cifra: Principal (violão e guitarra)
Selo Cifra Club: esta cifra foi revisada para atender aos critérios oficiais da nossa Equipe de Qualidade.
tom: A
(Bm F# A E)(4x)

    Bm     Bbm 2x
|--2------1------|
|--3---3--2---2--|
|--4------3------|
|--4------3------|
|--2------1------|
|----------------|

Bm                 Bbm
  And even in your darkest hour
Bm             Bbm      Bm
  The recipe I cook for you
                  Bbm    Bm
  Can release its latent power
                     Bbm        Bm  F# A E
  And make your body feel brand new

    Bm   F#   A    E
|-----------------------|
|-----------------------|
|-----------------------|
|-----------------------|
|--2--2-1--1-0--0-------|
|-----------------4--0--|

Bm                   Bbm
  Can't you hear the music play
Bm                Bbm      Bm
  Being center of what you want
                   Bbm     Bm
  Try to leave the past behind
                  Bbm   D E
  Memories don't appeal

                    F#   D E
  All the things we said
                    F#  D E
  All the things we did
                      A      D E
  All the things that passed
        F#
  Were satisfied

(Bm F# A E)(2x)

Solo

    Bm             F#             A            E
|-------------------------------------------------|
|-------------------------------------------------|
|-------------------------------------------------|
|-------------------------------------------------|
|--2---2--2-2-2-2-2/4-4-4--4-4-4-4\2-2------------|
|---------------------------------------5-5--5\4--|

    Bm       F#             A             E
|-----------------------------------------------------|
|-----------------------------------------------------|
|-----------------------------------------------------|
|---------------/4-4--4-4-4-4\2-2-2-------------------|
|--2--(2)-4-4-----------------------5-5--5-4-4p2---2--|
|------------------------------------------------5----|

    Bm                 F#                  A               E
|-------------------------------------------------------------------------|
|-------------------------------------------------------------------------|
|--7--7-7-7-6-6--4-4-4\3-3-3h4--6--6-6-6-6p4-4-4-\2-2---------------------|
|------------------------------------------------------6-6-6-6p4-4-4\2-2--|
|-------------------------------------------------------------------------|
|-------------------------------------------------------------------------|

    Bm                F#                          A                 E
|--------------------------------------------------------------------------------------------|
|--------------------12-12-12-11-11----------------------------------------12--12--12--12----|
|--7-7-7-/9-9-11-11-----------------11-11--11-11-\9-9p7-7-6-6--6-7-6---------16--16--16--16--|
|--------------------------------------------------------------------9-9---------------------|
|--------------------------------------------------------------------------------------------|
|--------------------------------------------------------------------------------------------|

    Bm                   F#                   A                    E
|--7---7---5---5---9----7---7---4---4---9----7---7---5---5---9----7-7-7-5-5\4-4-4--|
|----7---7---7---7---7----7---7---7---7---7----7---7---7---7---7-------------------|
|----------------------------------------------------------------------------------|
|----------------------------------------------------------------------------------|
|----------------------------------------------------------------------------------|
|----------------------------------------------------------------------------------|

    Bm      F#             A               E
|----------------------------------------------------------------|
|----------------------------------------------------------------|
|----------------------------------------------------------------|
|-------------------------/4-4-4~p2-2-2--/7-7-7-7-7-6-6-6-6-6-6--|
|--5--2--2-2h4-4-4-5-4-2-----------------------------------------|
|----------------------------------------------------------------|

    Bm   F#            A                  E
|----------------------------------------------------|
|--3-------------------------------------------------|
|----4--3-3-3-4-6--6-6p4-4-4\2-2-1-1--2-1-2-2-1------|
|-----------------------------------------------4-2--|
|----------------------------------------------------|
|----------------------------------------------------|
Outros vídeos desta música
    71 exibições
      • ½ Tom
      • A
      • Bb
      • B
      • C
      • Db
      • D
      • Eb
      • E
      • F
      • F#
      • G
      • Ab
    • Adicionar à lista

    Afinação da cifra

    Afinador online

      0 comentários

      Ver todos os comentários

      Conseguiu tocar?

      0Tocaram0Ainda não

      Grave um vídeo tocando Last Night e nos envie!

      Toque também

      1. Imagem do artista RideParalysed Ride
      2. Imagem do artista MedicineTika Dan Saat Ini Medicine
      3. Imagem do artista ChapterhouseIf You Want Me Chapterhouse
      4. Imagem do artista Sing-singHalal A Majra Sing-sing

      Entre para o Cifra Club PRO

      Tenha acesso a benefícios exclusivos no App e no Site

      • Chega de anúncios

      • Badges exclusivas

      • Mais recursos no app do Afinador

      • Atendimento Prioritário

      • Aumente seu limite de lista

      • Ajude a produzir mais conteúdo

      Cifra Club Pro

      Aproveite o Cifra Club com benefícios exclusivos e sem anúncios
      Cifra Club Pro
      Aproveite o Cifra Club com benefícios exclusivos e sem anúncios
      Ops (: Contenido disponible sólo en portugués.
      OK