Cifra Club

La última cena

Luzbel

Cifra: Principal (violão e guitarra)
tom: E
E|----------------------------5| nh----------------|
B|--0---5----5/7-8-7----5-----5| nh----------------|
G|--------4----------7----4---5| nh----------------|
D|-----------------------------------------------|
A|--0---0----0---0------0------------------------|
E|-----------------------------------------------|

E|----------------------------5| nh---7nh-----|
B|--0---5----5/7-8-7----5-----5| nh---7nh-----|
G|--------4----------7----4---5| nh---7nh-----|
D|----------------------------------7| nh-----|
A|--0---0----0---0------0-----------7| nh-----|
E|----------------------------------7| nh-----|

E|-----------------------------------------------------------|
B|-0--8------8-----7-----7-----7-----7------8-----8------12--|
G|-------9-----9-----8-----8-----8-----8------9-----9--------|
D|---------9-----9-----7-----7-----7-----7------9-----9------|
A|-0--0------------0-----------0------------0------------0---|
E|-----------------------------------------------------------|

E|-----------------------------------------------------------------------------------------|
B|-12--13-------13--12-------12---10-------10---8-----8---7h8p7----------------------------|
G|--------12-----------12------------11-----------7-------------7-----------4h5p4h5p4tr| ill-|
D|-----------14-----------12------------12------9---9-----0-------0-9-9~~~-----------------|
A|-0---0------------0-------------0--------------------------------------------------------|
E|-----------------------------------------------------------------------------------------|

:---------------------------------------------------------------------------------------|
:-0---5------8---10--12---13-12-13--12h13p12----------12--8---10--8h10p8-7--------------|
:-------4-------------------------------------12-14-------------------------9--8-9-9----|
:---------5-----------------------------------------------------------------------------|
:-0--0-------0---0---0----0--0--0---0---------0--0----0---0---0----------0-----0---0----|
:---------------------------------------------------------------------------------------|

           2 times                         2 times
E|--------------------------------------|---------------|------15-14-----------------------|
B|-16-16-16-16h17p16--------------------|-20-19b~~------|------------16h17p16--16-17-16-17-|
G|-------------------17-16--------------|---------------|----------------------------------|
D|-------------------------17-16--------|---------------|----------------------------------|
A|---------------------------------10-9-|----------10-9-|-10-9-----------------------------|
E|---------------------------------8--7-|----------8--7-|-8--7-----------------------------|

                                                              repeat                  2 tms
E|------------------------------------------------17-19-|-20p19p17-20p19p17-20p19p17-|-22b-|
B|-19-17-16-17-16---------------------------------------|----------------------------|-----|
G|----------------19-16-17-19-17-16--16-17-16~~~~-------|----------------------------|-----|
D|------------------------------------------------------|----------------------------|-----|
A|------------------------------------------------------|----------------------------|-----|
E|------------------------------------------------------|----------------------------|-----|


:-----------------------------------------|
:-----------------------------------------|
:----5----4-------2-----------2ah----4b---|
:------5----5~~~----5--4-5---------4------|
:-----------------------------------------|
:-0---------------------------------------|

:---------------------------------------------------------------------------------|
:--------------------------------------------------------------------12-12bfslow--|
:----5----4------16-14-12-----------------------------------5----4----------------|
:------5----5-------------16-14-12----------------------------5----5--------------|
:----------------------------------16-14-12---------------------------------------|
:-0-----------------------------------------16-14-12----0-------------------------|

:-------------------------|
:-------------------------|
:----5----4---------------|
:------5----5--9--8--7--6-|
:--------------7--6--5--4-|
:-0-----------------------|

:------------------------------------------------------------------------------------|
:------------------------------------------------------------------------------------|
:----4----3----------------------------4----3-----4-5-4------------------------------|
:------4----4---4-5----------------------4----4---------7-5--4-5-4-------------------|
:---------------------7-6-7-6-4-------------------------------------7-5--4-5-4-------|
:-0-----------------------------7---0-------------------------------------------7-7--|

:--------------------------------------------------------------|
:--------------------------------------------------------------|
:----4----3----------------------------4----3------------------|
:------4----4---4-5----------------------4----4-----4-4----5-5-|
:---------------------7-6-7-6-4---------------------2-2----3-3-|
:-0-----------------------------7---0-------------0------0-----|

:---------------------------------------|
:---------------------------------------|
:----5----4--------2--------2ah----4b---|
:------5----5-4-2----5-4-5-------4------|
:---------------------------------------|
:-0-------------------------------------|

:--------------------------------------------------------------------------------|
:-----------------------------------------------------------------------8bf~~~~--|
:----5----4------16-14-12-----------------------------------5----4---------------|
:------5----5-------------16-14-12----------------------------5----5-------------|
:----------------------------------16-14-12--------------------------------------|
:-0-----------------------------------------16-14-12----0------------------------|

:-------------------------|
:-------------------------|
:----5----4---------------|
:------5----5--9--8--7--6-|
:--------------7--6--5--4-|
:-0-----------------------|

:-------------------------------------------------------------------------------|
:-------------------------------------------------------------------------10-12-|
:----4----3----------------------------4----3---------------------9-10-12-------|
:------4----4---4-5----------------------4----4-----------9-10-12---------------|
:---------------------7-6-7-6-4-------------------9-10-12-----------------------|
:-0-----------------------------7---0-------------------------------------------|

:--------------------------------------------------------------|
:--------------------------------------------------------------|
:----4----3----------------------------4----3------------------|
:------4----4---4-5----------------------4----4bslow-----------|
:---------------------7-6-7-6-4--------------------------------|
:-0-----------------------------7---0--------------------------|

         2 times
E|------------------------------|----------------------------------------------------------|
B|------------------------------|-----------------------------------9-10-12--12-13-12----12|
G|------------------------------|---------------------------9-10-12-------------------14---|
D|--------------------7-8-10-8-7|--------------------8-9-11--------------------------------|
A:10-9---------7-9-10-----------|10-9---------7-8-10---------------------------------------|
E:8--7--7-8-10------------------|8--7--7-8-10----------------------------------------------|


E|-20-20-20-20-20-20-19-20-19-17-19-17-------20-----------20----------20----------20-------|
B|-------------------------------------20-20-----20-20-19----19-19-17----17-17-------------|
G|-----------------------------------------------------------------------------19----19-19-|
D|-----------------------------------------------------------------------------------------|
A|-----------------------------------------------------------------------------------------|
E|-----------------------------------------------------------------------------------------|

:-------20-----19b~~~~--19-19-16-18-16-----------------------------------------------------|
:--------------------------------------19-16-17-16-----------------------------------------|
:-17-17-----17-------------------------------------19-19-16-18-16----------------16-17-16~~|
:-----------------------------------------------------------------19-19-16-17-19-----------|
:------------------------------------------------------------------------------------------|
:------------------------------------------------------------------------------------------|

E|-----------------------------------------------------------------------------------------|
B|-----------------------------------------------------------------------------------------|
G|-12/14/12~~~~~--14/16/14~~~~~/12~~~~--12/14/12~~/-11~~~~--11/12/11/-9~~~--9h11-9/7-7h9-7-|
D|-----------------------------------------------------------------------------------------|
A|-----------------------------------------------------------------------------------------|
E|-----------------------------------------------------------------------------------------|

E|--------------7-8-10-8-7-----------------------------------------------------------------|
B|-------------------------10-7-8-10-8-7--7-7-10-7-8~~~~---8--7/8/7--10-8-/12-10/13-12~~~~-|
G:6--6h7-6~~~~~----------------------------------------------------------------------------|
D|-----------------------------------------------------------------------------------------|
A|-----------------------------------------------------------------------------------------|
E|-----------------------------------------------------------------------------------------|

:-------------12-12-14-15-14-12-12h14p12---------------------------------------------------|
:-10--10~~~~-----------------------------15-12-13-15-13-12-13-12---------------------------|
:----------------------------------------------------------------15-12-14-15-14-12-12-14-12|
:------------------------------------------------------------------------------------------|
:------------------------------------------------------------------------------------------|
:------------------------------------------------------------------------------------------|
                                                          pm.............................
E|----------------------------------------------------------------------------------------|
B|----------------------------------------------------------------------------------------|
G|-------------------------------------------------------------------------------------12-|
D|-15-12-14-15-14-12-12-14-12----------------------------------------12----12-14-12-14----|
A|----------------------------15-12-14-15--12-14-12-12~~~/--14-12-14----14----------------|
E|----------------------------------------------------------------------------------------|

 .................
E|---------------------------------------------------------------19-----------------------|
B|------------------------------------------20-----19-20--19--------20-19-20-19----19-----|
G|----12-14-12-14---0-2-0--4--4~~~~~---21-------21------------21----------------21----21--|
D|-14-------------------------------------------------------------------------------------|
A|----------------------------------------------------------------------------------------|
E|----------------------------------------------------------------------------------------|

E|---------------------------19-----------------------|
B|------20-----19-20--19--------20p19-20p19----19-----|
G|-21-------21------------21----------------21----20--|
D|----------------------------------------------------|
A|----------------------------------------------------|
E|----------------------------------------------------|

e:---------------------------18---------------------------------------------18-------------|
B:------19-----18-19--18--------19p18-19p18---------------19----18-19-18-------19-18-19-18-|
G:-20-------20------------20----------------20--20~~---20----20----------20----------------|
D|-----------------------------------------------------------------------------------------|
A|-----------------------------------------------------------------------------------------|
E|-----------------------------------------------------------------------------------------|

:----------------|
:----------------|
:-19--16-16~~~~~-|
:----------------|
:----------------|
:----------------|

E|-----------------------------19-----------------------|
B|--------20-----19-20--19--------20-19-20-19----19-----|
G|---21-------21------------21----------------21----21--|
D|------------------------------------------------------|
A|------------------------------------------------------|
E|------------------------------------------------------|

E|---------------------------19-----------------------|
B|------20-----19-20--19--------20p19-20p19----19-----|
G|-21-------21------------21----------------21----20--|
D|----------------------------------------------------|
A|----------------------------------------------------|
E|----------------------------------------------------|

e:---------------------------18---------------------------------------------18-------------|
B:------19-----18-19--18--------19p18-19p18---------------19----18-19-18-------19-18-19-18-|
G:-20-------20------------20----------------20--20~~---20----20----------20----------------|
D|-----------------------------------------------------------------------------------------|
A|-----------------------------------------------------------------------------------------|
E|-----------------------------------------------------------------------------------------|

:----------------|
:----------------|
:-19--16-16~~~~~-|
:----------------|
:----------------|
:----------------|

2:44

E|-0--------------------------------------------------7----------------------------------|
B|--------0----------------0------------------7---------7---7----7--------------3--------|
G|----0---------0------------0---0----------8---8---8-----8--------8----------4---4---4--|
D|------2-------------2--------2----------9-------9-------------------------5-------5----|
A|-3---------3------3---3---------------9----------------------9----------5--------------|
E|------------------------------------7---------------------------------3----------------|

E|-3----------------------------------------------------|
B|---3---3-----3-------12------9------6-----3----0---2--|
G|-----4---------4-----10-13---7-10---4-7---1-4--0------|
D|------------------------------------------------------|
A|----------5----------------------------------------4--|
E|------------------------------------------------------|

E|-0--------------------------------------------------7----------------------------------|
B|--------0----------------0------------------7---------7---7----7--------------3--------|
G|----0---------0------------0---0----------8---8---8-----8--------8----------4---4---4--|
D|------2-------------2--------2----------9-------9-------------------------5-------5----|
A|-3---------3------3---3---------------9----------------------9----------5--------------|
E|------------------------------------7---------------------------------3----------------|

E|-3----------------------------------------------------|
B|---3---3-----3-------12------9------6-----3----0---2--|
G|-----4---------4-----10-13---7-10---4-7---1-4--0------|
D|------------------------------------------------------|
A|----------5----------------------------------------4--|
E|------------------------------------------------------|


:------------------------------------------------------------------------------------------|
:-17-17b--16-17-16-17-16-------------------------------------------------------------------|
:------------------------19-16-17-16-17-16--17-17bf---7-9-7-9-7----------------------------|
:---------------------------------------------------------------9-7-9-7------------9-10--9-|
:------------------------------------------------------------------------9-7-9-7-----------|
:------------------------------------------------------------------------------------------|

           pm..........................................
E|---------------------------------------------------------------18bf---21-21--22bf~~~~-|
B|--------------------------------------------------------------------------------------|
G|-------------------------------------10----10-12-10-12-12bf~~~------------------------|
D|-7--4-5------------10----10-12-10-12----12--------------------------------------------|
A|----------12-10-12----12--------------------------------------------------------------|
E|--------------------------------------------------------------------------------------|


3:25

E|---------------------------------------------------------------------------------------|
B|---------------------------------------------------------------------------------------|
G|------------------------------------------------------------7-7-9-10-10----------------|
D|-----9---9--10--12--9---7--7--9--10---5---5--7--9--9/10--9---------------9--9-10--12-7-|
A|-6-------------------------------------------------------------------------------------|
E|---------------------------------------------------------------------------------------|

:--------------------------------------------------------------------|
:-10--8-7------------------------0h1p0h1p0h1p0h1p0-trill-------------|
:---------9-------4-4h5-4--2--0--------------------------------------|
:---------------5----------------------------------------------------|
:-------------6------------------------------------------------------|
:--------------------------------------------------------------------|


hillo. son. mex.

herson

ah inche chillon le tiraron agua al kanijo y ya no kizo kantar
'incidente secrets bar, concierto luzbel'
*
tienes nalgas peludas
00:00 / 00:00
Outros vídeos desta música
Repetir
Outros vídeos desta música
Compositor não encontrado.
    • ½ Tom
    • A
    • Bb
    • B
    • C
    • Db
    • D
    • Eb
    • E
    • F
    • F#
    • G
    • Ab
  • Adicionar à lista

    0 comentários

    Ver todos os comentários

    Conseguiu tocar?

    0 Tocaram 0 Ainda não

    Grave um vídeo tocando La última cena e nos envie!

    Entre para oCifra Club PRO

    Tenha acesso a benefícios exclusivos no App e no Site

    • Chega de anúncios

    • Prioridade de compra em lançamentos

    • Mais recursos no app do Afinador

    • Atendimento Prioritário

    • Descontos nos produtos Cifra Club

    • Ajude a produzir mais conteúdo

    00:00 / 00:00

    Cifra Club Pro

    Aproveite o Cifra Club com benefícios exclusivos e sem anúncios
    Cifra Club Pro
    Aproveite o Cifra Club com benefícios exclusivos e sem anúncios
    OK