Enviar cifraEntrar

Simple Man

Lynyrd Skynyrd

Cifra: Principal
exibições 294.313
Tom: C
Introdução: C  G  Am
            C  G  Am
            C  G  Am
            C  G  Am

(Guitarra 1)


       C               G
E|------------------------------------------|
B|-------------1----------------------------|
G|-------0-------0---0---------0------------|
D|---------2-------2-----0-------0---0------|
A|-0-2-3-----3-------------2-------2--------|
E|---------------------3-----3--------------|


   Am
E|-------------------------3----------------|
B|---------1---------1-------1--------------|
G|---2-------2---2-----2--------------------|
D|-----2-------2---------2------------------|
A|-0-----0---------0------------------------|
E|------------------------------------------|


(Guitarra 2)


       C               G
E|------------------------------------------|
B|-----------1------------------------------|
G|-------0-------0---0-------0--------------|
D|---------2-------2-----0-------0---0------|
A|-0-2-3-------------------2-------2--------|
E|---------------------3--------------------|


   Am
E|-----------------------3------------------|
B|-------1-------1-----------1--------------|
G|---2-------2-------2----------------------|
D|-----2-------2-------2--------------------|
A|-0----------------------------------------|
E|------------------------------------------|



Primeira Estrofe:

      C      G
Mama told me 
           Am
When I was    young
            C      G
Come sit beside me
        Am
Wy only    son
             C     G
And listen closely 
          Am
To what I    say
            C               G
And if you do this it will help you 
     Am
Some    sunny day


Riff 1: C  G  Am
        C  G  Am


       C            G            Am
E|------------------------------------------|
B|------------------------------------------|
G|------------------------------------------|
D|------------------------------------------|
A|-0-2-3----5/7\5p3------5/7\5p3------------|
E|------------------3~-----------5~---------|


E|------------------------------------------|
B|------------------------------------------|
G|------------------------------------------|
D|------------------------------------------|
A|-------5/7--------------------------------|
E|-0-3-0-3/5--------------------------------|



Segunda Estrofe:

           C   G
Take your time
            Am
Don't live too fast
               C   G
Troubles will come 
              Am
And they will    pass
           C        G
Go find a woman and 
            Am
You'll find    love
              C                 G
And don't forget, son there is someone 
   Am
Up    above


Primeiro Refrão:

          C5    G5
And be a simple 
        A5
Kind of    man
    C5       G5
Be something 
                A5
You love and understand

            C5    G5
Baby, be a simple 
        A5
Kind of    man
           C5              G5
Won't you do this for me, son?
        A5
If you can?

( C  G  Am )


Terceira Estrofe:

             C   G
Forget your lust 
              Am
For the rich man's gold
              C   G
All that you need 
           Am
Is in your    soul
             C      G
And you can do this 
         Am
If you try
            C                G
All that I want for you, my son
         Am
Is to be    satisfied


Segundo Refrão:

          C5    G5
And be a simple 
        A5
Kind of    man
    C5       G5
Be something 
                A5
You love and understand

            C5    G5
Baby, be a simple 
        A5
Kind of    man
           C5              G5
Won't you do this for me, son
        A5
If you can?


Solo: C5  G5  A5
      C5  G5  A5
      C5  G5  A5
      C5  G5  A5
      C5  G5  A5
      C5  G5  A5
      C  G  Am
      C  G  Am

(Parte 1)


E|-----------------------------------------------------|
B|-------8------8--------8----8------------------------|
G|-5--7--7b9~---7b9r7p5--7~~--7b9r7p5------------------|
D|-------------------------------------7~~-------------|
A|-----------------------------------------------------|
E|-----------------------------------------------------|


E|-----------------------------------------------------|
B|-----------------------------------------------------|
G|-----17----19-17-------------------------------------|
D|-/19-17-19-19-17-19~---------------------------------|
A|-/19----19-------19~---------------------------------|
E|-----------------------------------------------------|


(Parte 2)


E|-----------------------------------------------------|
B|---------20--------20--------------20----------------|
G|-17--19--19b21~-------19b21r19p17--19~~--19b21r19p17-|
D|-----------------------------------------------------|
A|-----------------------------------------------------|
E|-----------------------------------------------------|


E|-------------------17-20b22-b22-b22-b24-20b22r\------|
B|----20b22~~------------------------------------------|
G|-------------19b21-----------------------------------|
D|-19--------------------------------------------------|
A|-----------------------------------------------------|
E|-----------------------------------------------------|


(Parte 3)


E|-17--------------------------------------------------|
B|----17-20b22~---20b22r20p17--20~~--------------------|
G|-----------------------------------------------------|
D|-----------------------------------------------------|
A|-----------------------------------------------------|
E|-----------------------------------------------------|


E|--------17-----------------17-----------------17-----|
B|-----------20b22~-------------20b22~-----------------|
G|-19b21-------------/19b21-------------/19b21---------|
D|-----------------------------------------------------|
A|-----------------------------------------------------|
E|-----------------------------------------------------|


E|-----------17----------------------------------------|
B|-20b22--17----17-20b22r\-----------------------------|
G|-----------------------------------------------------|
D|-----------------------------------------------------|
A|-----------------------------------------------------|
E|-----------------------------------------------------|


(Parte 4)


E|-----------------------------------------5-----------|
B|-------8---------8---------8----------------8--8b10~-|
G|-5--7--7b9rb9~~----7b9r7p5-7b9r7~---7b9--------------|
D|-----------------------------------------------------|
A|-----------------------------------------------------|
E|-----------------------------------------------------|


E|-----------------------------------------------------|
B|-----------------------------------------------------|
G|-------5-7/9--9/12--12/14----------------------------|
D|-2/5-7-----------------------------------------------|
A|-----------------------------------------------------|
E|-----------------------------------------------------|


(Parte 5)


E|-----------------------------------------------------|
B|---------20---------------20-------------------------|
G|-17--19--19b21~~\----/17------19b21r19~~-------------|
D|-----------------------------------------------------|
A|-----------------------------------------------------|
E|-----------------------------------------------------|


E|-----------------------------------------------------|
B|-20--------------20b22~~------8----------------------|
G|----19b21r19h17------------------7b9r7p5-------------|
D|-----------------------------------------7~----------|
A|-----------------------------------------------------|
E|-----------------------------------------------------|



Quarta Estrofe:

                C    G
Boy, don't you worry
             Am
You'll find yourself
             C    G
Follow your heart 
        Am
And nothing else
                 C  G
And you can do this 
         Am
If you try
       C                G
All I want for you, my son
         Am
Is to be    satisfied


Terceiro Refrão:

          C5    G5
And be a simple 
        A5
Kind of    man
    C5       G5
Be something 
                A5
You love and understand

            C5    G5
Baby, be a simple 
        A5
Kind of    man
           C5              G5
Won't you do this for me, son
        A5
If you can?
  • 1
  • 2
  • 3
  • 4
  • 5
  • 6
  • 7
  • 8
  • 9
  • 10
  • 11
  • 12
    Acordes para:

      0 comentários

        mostrar mais comentários

        Conseguiu tocar?

        60tocaram2ainda não

        Grave um vídeo tocando Simple Man e mande pra gente!

        00:00 / 00:00
        outros vídeos desta música
        repetirqualidadeautomática
        • automática
        Outro vídeos desta música
          Capítulos
          • Tocando a Música
          • Dicas Iniciais / Equipamentos
          • Configurações do Amplificador
          • Afinação
          • Acordes e Dicas para a Música
          • Tocando a Introdução
          • Introdução: Guitarra 1
          • introdução: Guitarra 2
          • Dicas para a Primeira Estrofe
          • Tocando a Primeira Estrofe
          • Ensinando o Riff 1
          • Dicas para o Refrão
          • Tocando o Refrão
          • Ensinando o Ritmo do Refrão
          • Dicas para o Solo
          • Tocando o Solo
          • Solo - Parte 1 de 5
          • Solo - Parte 2 de 5
          • Solo - Parte 3 de 5
          • Solo - Parte 4 de 5
          • Solo - Parte 5 de 5
          • Encerramento
          • Ficha Técnica
          00:00 / 00:00
          automática
          • automática
          2 versões de Tab de baixoexibiçõescontribuições
          1 versão de Tab de bateriaexibiçõescontribuições
          1 versão de Guitar Proformatodownloadscontribuição
          fecharplay/pause subir/descer velocidade
            acordes
            fechar
            OK
            Feedback