Cifra Club

Carolina

M-Clan

Cifra: Principal (violão e guitarra)
Selo Cifra Club: esta cifra foi revisada para atender aos critérios oficiais da nossa Equipe de Qualidade.
tom: G
[Tab - Intro]

E|---3---3-----3----------------------------|
B|-------3----------------------------------|
G|-4---4-5---4---4-5------------------------|
D|------------------------------------------|
A|------------------------------------------|
E|------------------------------------------|

[Intro] Em  C  G  D
        Em  C  G  D
        Em  C  G  D
        Bb  F  G

[Tab - Intro]

Parte 1 de 3
E|---3------3------3---5------5-5-----------|
B|---5------5------3-x-5h7--5h7-5-----------|
G|-4---4-5----5-4----x------------7---------|
D|------------------------------------------|
A|------------------------------------------|
E|------------------------------------------|

Parte 2 de 3
E|---3------3------3---5-----5--5-----------|
B|---5------5------3-x-5h7-5h7--5-----------|
G|-4---4-5----5-4----x-------------7--------|
D|------------------------------------------|
A|------------------------------------------|
E|------------------------------------------|

Parte 3 de 3
E|---3------3------3-------10----6--5-----3-|
B|---5------5------3-x-----10----6--6-6-x-3-|
G|-4---4-5----5-4----x-\11-----7----5-----4-|
D|------------------------------------------|
A|------------------------------------------|
E|------------------------------------------|

[Primeira Parte]

C                G
  La dulce niña Carolina
D                       Am
  No tiene edad para hacer el amor
C                  G
  Su madre la estará buscando
          D
O eso es lo que creo yo

C                   G
  No puedo echarla de mi casa
D                       Am
  Me dice que no tiene donde dormir
C                 G
  Después se mete en mi cama
        D
Eso es mucho para mi

[Pré-Refrão]

Am7           D            Am7
    Esa va a ser mi ruina, ah
         D         C    G     D
Pequeña Carolina, vete por favor

[Refrão]

Em      C     G       D
   Carolina trátame bien
       Em      C
No te rías de mi
         G           D
No me arranques la piel
Em      C     G       D
   Carolina trátame bien
        Bb         F        G
O al final te tendré que comer

[Solo] Em  C  G  D
       Em  C  G  D
       Em  C  G  D
       Bb  F  G

[Tab - Solo]

Parte 1 de 4
E|---3------3------3---5------5-5-----------|
B|---5------5------3-x-5h7--5h7-5-----------|
G|-4---4-5----5-4----x------------7---------|
D|------------------------------------------|
A|------------------------------------------|
E|------------------------------------------|

Parte 2 de 4
E|---3------3------3-----2--0---------------|
B|---5------5------3-x--------3-------------|
G|-4---4-5----5-4----x-2--------------------|
D|------------------------------------------|
A|------------------------------------------|
E|------------------------------------------|

Parte 3 de 4
E|---3------3------3-----5--5---------------|
B|---5------5------3-x------3---------------|
G|-4---4-5----5-4----x-5----5---------------|
D|------------------------------------------|
A|------------------------------------------|
E|------------------------------------------|

Parte 4 de 4
E|------------------3--------3--------------|
B|-6---6---6----------3-3-3--3--------------|
G|-5h7-5---5--7-x-4-----5-4--4--------------|
D|-------8-7--9-x-5-------------------------|
A|------------------------------------------|
E|------------------------------------------|

[Segunda Parte]

C                    G
  No queda en la ciudad esquina
  D                 Am
Tras la que yo me pueda esconder
C                  G
  Siempre aparece Carolina
       D
Con algún tipo de interés

C                  G 
  La reina de las medicinas
D                         Am
  Que no se venden en farmacia legal
C               G
  Vinagre para las heridas
 D
Dulce azúcar al final

[Pré-Refrão]

Am7              D             Am7
    El diablo está en mi vida, ah
         D         C    G     D
Pequeña Carolina, vete por favor

[Refrão]

Em      C     G       D
   Carolina trátame bien
       Em      C
No te rías de mi
         G           D
No me arranques la piel
Em      C     G       D
   Carolina trátame bien
        Bb         F        G
O al final te tendré que comer

[Solo] C  G  D  Am7
       C  G  D
       C  G  D  Am7
       C  G  D

[Tab - Solo]

Parte 1 de 10
E|------------------------------------------|
B|-5--5-5-3-1-0-----------------------------|
G|------------------------------------------|
D|-5--5-5-3-2-0-----------------------------|
A|------------------------------------------|
E|------------------------------------------|

Parte 2 de 10
E|------------------------------------------|
B|-0-0-1-2-3-3-3-3-1-0-0h1-0----------------|
G|---------------------------0-0h2-0--------|
D|-0-0-2-3-4-4-4-4-------------------2------|
A|------------------------------------------|
E|------------------------------------------|

Parte 3 de 10
E|-------8-10-10h12-10~---------------------|
B|-----8-----------------10b12--10b11-8-10--|
G|-7/9--------------------------------------|
D|------------------------------------------|
A|------------------------------------------|
E|------------------------------------------|

Parte 4 de 10
E|------------------------------------------|
B|-----8---8---8----8-----8-----------------|
G|-7h9-7h9-7h9-7----7hp9--9-9p7----7--------|
D|---------------10-------------10----------|
A|------------------------------------------|
E|------------------------------------------|

Parte 5 de 10
E|------------10-10-------------------------|
B|---8-10b12--------b12r10-8----------------|
G|-9----------------------------------------|
D|------------------------------------------|
A|------------------------------------------|
E|------------------------------------------|

Parte 6 de 10
E|-------12---------------------------------|
B|-10b12----b12r10-8~-10-8\-----------------|
G|------------------------------------------|
D|------------------------------------------|
A|------------------------------------------|
E|------------------------------------------|

Parte 7 de 10
E|-7-8-9-10---------------------------------|
B|----------10b12--8------------------------|
G|-------------------7\5--7-----------------|
D|--------------------------8/9-------------|
A|------------------------------10----------|
E|---------------------------------10-------|

Parte 8 de 10
E|--------10-------12-10--------------------|
B|-11b12-----11b12-------11b12--------------|
G|-----------------------------12-----------|
D|--------------------------------12-10-----|
A|------------------------------------------|
E|------------------------------------------|

Parte 9 de 10
E|------------------14----------------------|
B|------10----------------------------------|
G|-9/11----11-11/14----14-------------------|
D|------------------------------------------|
A|------------------------------------------|
E|------------------------------------------|

Parte 10 de 10
E|-------12----------10--------5------------|
B|------------------------------------------|
G|-11/12----12-10/11----11-4/5--------------|
D|------------------------------------------|
A|------------------------------------------|
E|------------------------------------------|

[Pré-Refrão]

Am7              D             Am7
    El diablo está en mi vida, ah
         D         C    G     D
Pequeña Carolina, vete por favor

[Refrão]

Em      C     G       D
   Carolina trátame bien
       Em      C
No te rías de mi
         G           D
No me arranques la piel
Em      C     G       D
   Carolina trátame bien
        Bb         F        G
O al final te tendré que comer

Em      C     G       D
   Carolina trátame bien
       Em      C
No te rías de mi
         G           D
No me arranques la piel
Em      C     G       D
   Carolina trátame bien
        Bb         F        G
O al final te tendré que comer

[Final] Em  C  G  D
        Em  C  G  D
        Em  C  G  D
        Bb  F  G
        Bb  F  G
        Bb  F  G

[Tab - Final]

Parte 1 de 6
E|---3------3------3---5-----5--5-----------|
B|---5------5------3-x-5h7-5h7--5-----------|
G|-4---4-5----5-4----x-------------7--------|
D|------------------------------------------|
A|------------------------------------------|
E|------------------------------------------|

Parte 2 de 6
E|---3------3------3---5-----5--5-----------|
B|---5------5------3-x-5h7-5h7--5-----------|
G|-4---4-5----5-4----x-------------7--------|
D|------------------------------------------|
A|------------------------------------------|
E|------------------------------------------|

Parte 3 de 6
E|---3------3------10----10-8-7-------------|
B|---5------5-------------------------------|
G|-4---4-5-----/11----11----9-7-------------|
D|------------------------------------------|
A|------------------------------------------|
E|------------------------------------------|

Parte 4 de 6
E|-x-6-x-5--5-x-3--3-3-x-3------------------|
B|-x-6-x-6--6-x-3--3-3-x-3------------------|
G|-x-7-x-5--5-x-4--4-5-x-4------------------|
D|------------------------------------------|
A|------------------------------------------|
E|------------------------------------------|

Parte 5 de 6
E|------------5-----3-3---3-----------------|
B|------------------3-3---3-----------------|
G|-5h7-5---5-----4--4-5h4-4-----------------|
D|-------8----------------------------------|
A|------------------------------------------|
E|------------------------------------------|

Parte 6 de 6
E|---------------------3-3-3-3--------------|
B|---------------------3-3-3-3--------------|
G|-5h7-5---5--5h7-5-4--4-4-4-4--------------|
D|-------8----------------------------------|
A|------------------------------------------|
E|------------------------------------------|
Outros vídeos desta música
    20.134 exibições
      • ½ Tom
      • A
      • Bb
      • B
      • C
      • Db
      • D
      • Eb
      • E
      • F
      • F#
      • G
      • Ab
    • Adicionar à lista

    Afinação da cifra

    Afinador online

      0 comentários

      Ver todos os comentários

      Conseguiu tocar?

      4Tocaram1Ainda não

      Grave um vídeo tocando Carolina e nos envie!

      Toque também

      1. Imagem do artista PerezaPrincesas Pereza
      2. Imagem do artista La FugaBuscando en la basura La Fuga
      3. Imagem do artista Platero Y TuEl Roce De Tu Cuerpo Platero Y Tu
      4. Imagem do artista Quique GonzálezSalitre Quique González

      Entre para o Cifra Club PRO

      Tenha acesso a benefícios exclusivos no App e no Site

      • Chega de anúncios

      • Badges exclusivas

      • Mais recursos no app do Afinador

      • Atendimento Prioritário

      • Aumente seu limite de lista

      • Ajude a produzir mais conteúdo

      Cifra Club Pro

      Aproveite o Cifra Club com benefícios exclusivos e sem anúncios
      Cifra Club Pro
      Aproveite o Cifra Club com benefícios exclusivos e sem anúncios
      Ops (: Contenido disponible sólo en portugués.
      OK