Cifra Club

Carolina

M-Clan

Cifra: Versão 4 (violão e guitarra)
Selo Cifra Club: esta cifra foi revisada para atender aos critérios oficiais da nossa Equipe de Qualidade.
tom: Em
INTRO:C ,G  ,D ,Am  (2veces)Sib,F ,G  
Punteo principio:
E||--|3-------      -3-------3--|---5------5---5-------------|
B||-----------       -----------|---5-7----7---5-------------|
G|||-4---4--5- (x2)  ---5--4----|-----------------7----------|
D||-----------       -----------|----------------------------|
A||-----------       -----------|----------------------------|
E||-----------       -----------|----------------------------|
C              G  
La dulce niña carolina,
D                           Am 
No tiene edad para hacer el amor
C              G  
Su madre la estará buscando,
   D 
O eso es lo que creo yo.

C                G  
No puedo echarla de mi casa,
D                    Am 
Me dice que no tiene donde dormir.
C               G  
Después se mete en mi cama
       D 
Eso es mucho para mi…

Am        D 
Esa va a ser mi ruina,
Am         D         C    G      D 
Pequeña carolina, vete por favor.

Estribillo:

Em   C     G      D 
Carolina trátame bien,
      Em      C    G      D 
No te rías de mi, no me arranques la piel
Em  C    G       D 
Carolina trátame bien,
   Bb             F         G  
O al final te tendré que comer.

C                 G  
No queda en la ciudad esquina,
D                 Am 
Tras la que yo, me pueda esconder
C               G  
Siempre aparece Carolina
     D 
con algún tipo de interés.

C               G  
La reina de las medicinas
D                   Am 
Que no se venden en farmacia legal,
C               G  
Vinagre para las heridas,
       D 
dulce azúcar al final.

Am          D          Am 
El diablo está en mi vida
        D         C   G      D 
Pequeña Carolina, vete por favor

Estribillo x2

INTRO:C ,G  ,D ,Am  (3 veces)Sib,F ,G  







Estrofa:
E||-0-0----------------|----------------------------|
B||-----3-3-0-3-0------|--3-3-3-1-0-1-0-------------|
G||---------------2-0--|----------------0-----------|
D||--------------------|------------------2-0-------|
A||--------------------|----------------------------|
E||--------------------|----------------------------|
La dulce niña Carolina  no tiene edad para hacer el amor

E||---0-0------------------|-------0--------------|
B||-------3-3-0-3-0--------|---0-3---0-0----------|
G||-----------------2-0----|-------------2-2------|
D||------------------------|----------------------|
A||------------------------|----------------------|
E||------------------------|----------------------|
Su madre la estara esperando eso es lo que creo yo

Preestribillo:
E||------0-3-2-------|-----0-3-2------|-0-----------|
B||----1-------3-0---|---1-------3-0--|---0-----3---|
G||--2---------------|-2--------------|-----2-0-----|
D||------------------|----------------|-------------|
A||------------------|----------------|-------------|
E||--|---------------|----------------|-------------|
Esa va ser mi ruina  pequeña Carolina vete por favor

Estribillo:
E||-------0----------|-----------------------------------|
B||-3-3-3---0--------|----0-1-3-0---0------------0-1-----|
G||-----------2-0-2--|------------2---2--0-0-0-2-----2---|
D||------------------|-----------------------------------|
A||------------------|-----------------------------------|
E||------------------|-----------------------------------|
Carolina tratame bien no te rias de mi, no me arranques la piel

E||-------0----------|-------------------------------|
B||-3-3-3---0--------|----0-1-3-1---1-----0----------|
G||-----------2-0-2--|------------3---3-2---2-0------|
D||------------------|-------------------------------|
A||------------------|-------------------------------|
E||------------------|-------------------------------|
Carolina tratame bien o al final te tendré que comer
Outros vídeos desta música
    48 exibições
      • ½ Tom
      • Am
      • Bbm
      • Bm
      • Cm
      • C#m
      • Dm
      • Ebm
      • Em
      • Fm
      • F#m
      • Gm
      • G#m
    • Adicionar à lista

    Afinação da cifra

    Afinador online

      0 comentários

      Ver todos os comentários

      Entre para o Cifra Club PRO

      Tenha acesso a benefícios exclusivos no App e no Site

      • Chega de anúncios

      • Badges exclusivas

      • Mais recursos no app do Afinador

      • Atendimento Prioritário

      • Aumente seu limite de lista

      • Ajude a produzir mais conteúdo

      Cifra Club Pro

      Aproveite o Cifra Club com benefícios exclusivos e sem anúncios
      Cifra Club Pro
      Aproveite o Cifra Club com benefícios exclusivos e sem anúncios
      Ops (: Contenido disponible sólo en portugués.
      OK