Cifra Club

Carolina

M-Clan

Cifra: Versão 6 (violão e guitarra)
Selo Cifra Club: esta cifra foi revisada para atender aos critérios oficiais da nossa Equipe de Qualidade.
tom: E
Estrofa:
E||-0-0----------------|----------------------------|
B||-----3-3-0-3-0------|--3-3-3---1----0-1-0--------|
G||---------------2-0--|----------------------------|
D||--------------------|------------------------2-0-|
A||--------------------|----------------------------|
E||--------------------|----------------------------|
La dulce niña Carolina, no tiene edad para hacer el amor

E||---0-0------------------|-------0--------------|
B||-------3-3-0-3-0--------|---0-3---0-0----------|
G||-----------------2-0----|-------------2-2------|
D||------------------------|----------------------|
A||------------------------|----------------------|
E||------------------------|----------------------|
Su madre la estará buscando  eso es lo que creo yo

Preestribillo:
E||-----0-3-2-------|-----0-3-2------|-0-----------|
B||---1-------3-0---|---1-------3-0--|---0-----3---|
G||-2--------------2|-2--------------|-----2-0-----|
D||-----------------|----------------|-------------|
A||-----------------|----------------|-------------|
E||-----------------|----------------|-------------|
Esta va ser mi ruina, pequeña Carolina vete por favor

Estribillo:
E||-------0----------|-----------------------------------|
B||-3-3-3---0--------|----0-1-3-0---0------------0-------|
G||-----------2-0-2--|------------2---2--0-0-0-2-----2---|
D||------------------|-----------------------------------|
A||------------------|-----------------------------------|
E||------------------|-----------------------------------|
Carolina tratame bien no te rias de mi, no me arranques la piel

E||-------0----------|-------------------------------|
B||-3-3-3---0--------|----0-1-3-1---1----------------|
G||-----------2-0-2--|------------3---3-2----0-------|
D||------------------|-------------------------------|
A||------------------|-------------------------------|
E||------------------|-------------------------------|
Carolina tratame bien o al final te tendré que comer
Outros vídeos desta música
    30 exibições
      • ½ Tom
      • A
      • Bb
      • B
      • C
      • Db
      • D
      • Eb
      • E
      • F
      • F#
      • G
      • Ab
    • Adicionar à lista

    Afinação da cifra

    Afinador online

      0 comentários

      Ver todos os comentários

      Entre para o Cifra Club PRO

      Tenha acesso a benefícios exclusivos no App e no Site

      • Chega de anúncios

      • Badges exclusivas

      • Mais recursos no app do Afinador

      • Atendimento Prioritário

      • Aumente seu limite de lista

      • Ajude a produzir mais conteúdo

      Cifra Club Pro

      Aproveite o Cifra Club com benefícios exclusivos e sem anúncios
      Cifra Club Pro
      Aproveite o Cifra Club com benefícios exclusivos e sem anúncios
      Ops (: Contenido disponible sólo en portugués.
      OK