Cifra Club

A Nation on Fire

Machine Head

Cifra: Principal (violão e guitarra)
Selo Cifra Club: esta cifra foi revisada para atender aos critérios oficiais da nossa Equipe de Qualidade.
tom: Ebm
 Intro:                                   1                    2
E|-------------------| -----------------
B|------------------------------|---------------------|-------------------|
G|------------------------------|---------------------|------------9------|
D|-------7-9-7--------------9---|--------8------------|---------8---------|
A|----7---------7--------7----7-|-----6----6----------|------6------------|
E|--0------------------8--------|--6------------------|----6--------------|
E|------------------------------|---------------------|-------------------|

E|---------------------------------------------------------------------------|
B|---------------------------------------------------------------------------|
G|-------7-9-7---9---------9------------8--------------7-9-7------10-7-10----|
D|----7--------7---------7----7-------6----6--------7---------7-----------9--|
A|--0------------------8------------6-------------0--------------------------|
E|---------------------------------------------------------------------------|

E|------------------------------------------------------------------------|
B|------------------------------------------------------------------------|
G|------------------9-------8----8--8\7--------7-5------------------------|
D|--9-10-9-7-----7--------x-------------------------7---------6-----------|
A|-------------8---------6-------6--6\5--5--(5)--------0------------------|
E|--------------------------------------------------------0------0--------|

E|-----------------------------------------------------------------------|
B|------------------------------------------------------|----------------|
G|----(7)-----(7)-----------------------7-5------------/-----------------|
D|---------6---------6-5_0-------0-----------7-------/-------------------|
A|---------------------------------0-----------0----6--------------------|
E|---------------------------0-------------------0-----------------------|

E|-------------------------------------------------------|
B|-------------------------------------------------------|
G|----------7-5-------------------(7)-----(7)------------|
D|----0----------7---------6-----------6-------6-5-0-----|
A|------0----------0-------------------------------------|
E|-0-----------------0--------0--------------------------|

E|----------------------------------11---------------------------------|
B|---------------------------------------------------------------------|
G|----------7-5------------5----/8-----8-----7-------8------7----------|
D|----0----------7---------6-------------------0-------0-------0-------|
A|-------0----------0--------------------------------------------------|
E|-0------------------0---------------------------0--------0------0----|

E|------------------------------------------------------------------|
B|------------------------------------------------------------------|
G|--8-----8------8--8-7----8-------7-----8--------10----8-----------|
D|----9-----9----------0----0-------0------9--------------9---------|
A|------8-----8------------------------------8-------8--------------|
E|------------------------0------0-----0----------------------------|

E|------------------------------------------------------------------------|
B|------------------------------------------------------------------------|
G|------------------------------------------------------------------------|
D|----0-------0-------0--------0----------6-----6-------------------------|
A|------------------------------------------------------------------------|
E|-0-----0-1----1-0-------0-1---------6------6----------------------------|

E|-------10---------10--------10-------------16------16-------------------|
B|----------10---------10--------10---------------------------------------|
G|----------------------------------10-----------13------13---------------|
D|--12----------13----------12--------------------------------------------|
A|------------------------------------------------------------------------|
E|------------------------------------------------------------------------|

E|------------------------------------------|
B|------------------------------------------|
G|------------------------------------------|
D|------------------------------------------|
A|-0-0-0-1-1-1-0-0-0-1-1-1-0-0--5-6-0-6-----|
E|-0-0-0-1-1-1-0-0-0-1-1-1-0-0------0-6-----|

 Gtr I
E|-------------------------------------------------------------------|
B|-----------------------------------------------11--11-11-11--------|
G|--9--9--9--10---10--10---9--9--9---10-10--10-----------------------|
D|------------------------------------------------8--8--8--8---------|
A|--7--7--7---8---8---8----7--7--7----8--8---8-----------------------|
E|-------------------------------------------------------------------|

 Gtr II
E|-------------------------------------------------------------------|
B|-------------------------------------------------------------------|
G|-------------------------------------------------------------------|
D|---9-9--9--10--10---10---9--9--9---10-10--10-----------------------|
A|---7-7--7---8---8---8----7--7--7----8--8---8----8--8--8--8---------|
E|------------------------------------------------8--8--8--8---------|

Chorus:
E|------------------------------------|
B|------------------------------------|
G|------------------------------------|
D|------------------------------------|
A|--/6-0-3-0-/6-0-0--3--0-1-3---------|
E|--/6-0-3-0-/6-0-0--3--0-1-3---------|

Here comes The thing:
E|-----------------------------------|
B|-----------------------------------|
G|-----------------------------------|
D|------------------10-10-10--6-6-6--|
A|-------------------8--8--8--4-4-4--|
E|--0-0-0-0-0-0-0-0------------------|

E|---------------------------------|
B|---------------------------------|
G|---------------------------------|
D|-------------------3-3-3--6-6-6--|
A|-------------------1-1-1--4-4-4--|
E|--0-0-0-0-0-0-0-0----------------|

Chorus:                   1                  2
E|----------------| -------------------
B|---------------| |----------------|-------------------|
G|---------------| |----------------|-------------------|
D|---------------| |----------------|-------------------|
A|---------------| |----------------|-------------------|
E|----0---3-5-6--| |----0---3-5-1---|----6--0----3--5---|
E|--x-0-0-3-5-6--| |--x-0-0-3-5-1---|--0-6--0----3--5---|
                                     | |  |    |  |
                                     A Na-tion On Fire
00:00 / 00:00
Outros vídeos desta música
Repetir
Outros vídeos desta música
2 exibições
    • ½ Tom
    • Am
    • Bbm
    • Bm
    • Cm
    • C#m
    • Dm
    • Ebm
    • Em
    • Fm
    • F#m
    • Gm
    • G#m
  • Adicionar à lista

Afinação da cifra

Afinador online

    0 comentários

    Ver todos os comentários

    Entre para o Cifra Club PRO

    Tenha acesso a benefícios exclusivos no App e no Site

    • Chega de anúncios

    • Mais recursos no app do Afinador

    • Atendimento Prioritário

    • Aumente seu limite de lista

    • Ajude a produzir mais conteúdo

    00:00 / 00:00

    Cifra Club Pro

    Aproveite o Cifra Club com benefícios exclusivos e sem anúncios
    Cifra Club Pro
    Aproveite o Cifra Club com benefícios exclusivos e sem anúncios
    OK