Cifra Club

Davidian

Machine Head

Cifra: Principal (violão e guitarra)
Selo Cifra Club: esta cifra foi revisada para atender aos critérios oficiais da nossa Equipe de Qualidade.
tom: D
E|-------------------------------|
B|-------------------------------|
G|------| n.h.---------n.h.--------|
D|------5------------5-----------|
A|-0-0---5--1----0-0---5---1-3-5-|
E|-0-0------1----0-0-------1-3-5-|
   Pm            Pm


[Verse]

E|------------------------------| Blind man ask me forgiveness
B|------------------------------| I won't deny myself
G|------------------------------| Disrespect you have given
D|------------------------------| Your suffering's my wealth
A|-0-0--1-0-0--0-5-0-0-0-1-3----| I feed off pain, force fed to love it
E|-0-0--1-0-0--0-5-0-0-0-1-3----| And now I swallow whole
                                 I'll never live in the past 


[Break]

(let freedom ring with a shotgun blast)


[Then]

E|-------------------------------|
B|-------------------------------|
G|-------------------| n.h.--------|
D|-----------------[5-5-5]-------|
A|-0-3-0-6-5-0-1-0-[5-5-5]-0-1---|
E|-0-3-0-6-5-0-1-0---------0-1---|

E|----------------------------------------------|
B|----------------------------------------------|
G|----------------------------------------------|
D|----------------------------------------------|
A|-0-3-0-6-5-0-1-0------------------------------|
E|-0-3-0-6-5-0-1-0--[0-0-0-0-1-0-0-0-2-0-0-0-0]-|
                           Pm

E|------------------------------| Burn my fist to the concrete
B|------------------------------| My fear is my strength
G|------------------------------| Power, rage unbound strength
D|------------------------------| Been pounded by the streets
A|-0-0--1-0-0--0-5-0-0-0-1-3----| Cyanide blood burns down the skyline
E|-0-0--1-0-0--0-5-0-0-0-1-3----| Hatred is purity
                                 The bullet connects at last 

[Break]

Let freedom ring with a shotgun blast

E|-------------------------------|
B|-------------------------------|
G|-------------------| n.h.--------|
D|-----------------[5-5-5]-------|
A|-0-3-0-6-5-0-1-0-[5-5-5]-0-1---|
E|-0-3-0-6-5-0-1-0---------0-1---|

E|----------------------------------------------|
B|----------------------------------------------|
G|----------------------------------------------|
D|----------------------------------------------|
A|-0-3-0-6-5-0-1-0------------------------------|
E|-0-3-0-6-5-0-1-0--[0-0-0-0-1-0-0-0-2-0-0-0-0]-|
                           Pm

Sorry, i don't have the solo but in version 2 it is to 98% right^^

Scarred 
Pour the salt in the wound

[Outro]

E|----------------------------------------------------------------|
B|----------------------------------------------------------------|
G|----------------------------------------------------------------|
D|----------------------------------------------------------------|
A|-000-x-x-000-x-x-000-x-x-000-x-x-000-x-x-000-x-x-333-444-111-333|
D|-000-x-x-000-x-x-000-x-x-000-x-x-000-x-x-000-x-x-333-444-111-333|
Outros vídeos desta música
    147 exibições
      • ½ Tom
      • A
      • Bb
      • B
      • C
      • Db
      • D
      • Eb
      • E
      • F
      • F#
      • G
      • Ab
    • Adicionar à lista

    Afinação da cifra

    Afinador online

      0 comentários

      Ver todos os comentários

      Entre para o Cifra Club PRO

      Tenha acesso a benefícios exclusivos no App e no Site

      • Chega de anúncios

      • Mais recursos no app do Afinador

      • Atendimento Prioritário

      • Aumente seu limite de lista

      • Ajude a produzir mais conteúdo

      Cifra Club Pro

      Aproveite o Cifra Club com benefícios exclusivos e sem anúncios
      Cifra Club Pro
      Aproveite o Cifra Club com benefícios exclusivos e sem anúncios
      OK