Cifra Club

Dale

Catupecu Machu

Cifra: Principal (violão e guitarra)
Selo Cifra Club: esta cifra foi revisada para atender aos critérios oficiais da nossa Equipe de Qualidade.
tom: Bm

   (INTRO)
E|-------------------------------------|-------------------------------------|-------------------------------------|
B|-------------------------------------|-------------------------------------|-------------------------------------|
G|------------3-4-7p4-----------3-4-7--|------------3-4-7p4-----------3-7-7--|------------3-4-7p4-----------3-4-0--|
D|------0-5---------------0-5----------|------0-5---------------0-5----------|------0-5---------------0-5----------|
A|----------5-----------------5--------|----------5-----------------5--------|----------5-----------------5--------|
E|--0h3---------------0-3--------------|--0h3---------------0-3--------------|--0h3---------------0-3--------------|

E|-------------------------------------|------------------------------|------------------------------|
B|-------------------------------------|------------------------------|------------------------------|
G|------------3-4-7p4-----------3-7-7--|--10s12-12-12-12-12-12-12-12--|--10s12-12-12-12-12-12-12-12--|
D|------0-5---------------0-5----------|--10s12-12-12-12-12-12-12-12--|--10s12-12-12-12-12-12-12-12--|
A|----------5-----------------5--------|------------------------------|------------------------------|
E|--0h3---------------0-3--------------|------------------------------|------------------------------|

E|------------------------------|------------------------------|---------------------------------------------|
B|------------------------------|------------------------------|---------------------------------------------|
G|--10s12-12-12-12-12-12-12-12--|--12-11-12-11-12--------------|----------7~7~-----------7~7~-----------7~7~-|
D|--10s12-12-12-12-12-12-12-12--|--12-11-12-11-12--------------|--5-5--7---------5-5--7---------5-5--7-------|
A|------------------------------|------------------------------|--5-5--7---------5-5--7---------5-5--7-------|
E|------------------------------|------------------------------|--3-3--5---------3-3--5---------3-3--5-------|

E|------------------------------------------------------------------------------|
B|------------------------------------------------------------------------------|
G|--------------------------------------7/4-------------------------------------|
D|--7-7-7-7-7-7-7-7-7-7-7-7-7-7-7-7--5------5-----------------------------------|
A|--7-7-7-7-7-7-7-7-7-7-7-7-7-7-7-7--5------5-----------------------------------|
E|--5-5-5-5-5-5-5-5-5-5-5-5-5-5-5-5--3------3| ds---------------------------------|

   Y VI LO QUIETO QUE ESTABA QUIETO, TOCANC  EL ARPA HOY. DESPERTATE NO ESTAS MUERTO, NO ESPED S!
E|------------------------------------------------------------------------------------------------|
B|------------------------------------------------------------------------------------------------|
G|------------------------------------------------------------------------------------------------|
D|-5---------------5----------------5----------3-----------5--------5------------------5----5-5---|
A|-5---------------5----------------5----------5-----------5--------5------------------5----5-5---|
E|-3---------------3----------------3----------5-----------3--------3------------------3----3-3---|

   NOOO!                    ...DALE!
E|----------------------|-----------------------------------------------------|------------------------------|
B|----------------------|-----------------------------------------------------|------------------------------|
G|----------------------|-----------------------------------------------------|--10s12-12-12-12-12-12-12-12--|
D|--5-------------------|-------------5-5-5-5-5-5-5-5-5-5-5-5-5-5-5-5-5-5-5-5-|--10s12-12-12-12-12-12-12-12--|
A|--5-------------------|-------------5-5-5-5-5-5-5-5-5-5-5-5-5-5-5-5-5-5-5-5-|------------------------------|
E|--3-------------------|-------------3-3-3-3-3-3-3-3-3-3-3-3-3-3-3-3-3-3-3-3-|------------------------------|

E|------------------------------|------------------------------|---------------15p3-----------|
B|------------------------------|------------------------------|------------------------------|
G|--10s12-12-12-12-12-12-12-12--|--10s12-12-12-12-12-12-12-12--|--10s12-12-12-----------------|
D|--10s12-12-12-12-12-12-12-12--|--10s12-12-12-12-12-12-12-12--|--10s12-12-12-----------------|
A|------------------------------|------------------------------|------------------------------|
E|------------------------------|------------------------------|------------------------------|

   Y SE HACE TARDE Y YA LO SABES B  NO LO HACES, DALE! A QUE NO ARRIESGASTE NADA NI UNA VEZ, DALE!
E|-------------------------------------------------------------------------------------------------|
B|-------------------------------------------------------------------------------------------------|
G|-------------------------------------------------------------------------------------------------|
D|-5-5-5-5-5-5-5-5-5-5-5-5-5-5-5-5-5-5-5-5-5-5-5-5-5-5-5-5-5-5-5-5-5-5-5-5-5-5-5-5-5-5-5-5-5-5-5-5-|
A|-5-5-5-5-5-5-5-5-5-5-5-5-5-5-5-5-5-5-5-5-5-5-5-5-5-5-5-5-5-5-5-5-5-5-5-5-5-5-5-5-5-5-5-5-5-5-5-5-|
E|-3-3-3-3-3-3-3-3-3-3-3-3-3-3-3-3-3-3-3-3-3-3-3-3-3-3-3-3-3-3-3-3-3-3-3-3-3-3-3-3-3-3-3-3-3-3-3-3-|

   Y DALE FUERTE...     MUY FUERTE DALE!   CUANC  TENGAS ADEA NTE A  CARA DEL MUTANTE, DAALEE!
E|---------------------------------------------------------------------------------------------|
B|---------------------------------------------------------------------------------------------|
G|---------------------------------------------------------------------------------------------|
D|-5-5-5-5-5-5-5--5555--5-5-5-5-5-5-5-5-5-5-5-5-5-5-5-5-5-5-5-5-5-5-5-5-5-5-5-5-5-5-5----------|
A|-5-5-5-5-5-5-5--5555--5-5-5-5-5-5-5-5-5-5-5-5-5-5-5-5-5-5-5-5-5-5-5-5-5-5-5-5-5-5-5----------|
E|-3-3-3-3-3-3-3--3333--3-3-3-3-3-3-3-3-3-3-3-3-3-3-3-3-3-3-3-3-3-3-3-3-3-3-3-3-3-3-3----------|

   (G  O: DALE CON PAA NCA Y TODA A  DISTORCION)
E|--------------------------------------------------------------------------------|
B|-----------------------------------------------------------------12-10----10----|
G|-7s12-12-12-12---------------------------12-------15p12-12-12----------12----12-|
D|-7s12-12-12-12--12-11-10-9---------12-12----12-12-------------------------------|
A|----------------------------10--------------------------------------------------|
E|--------------------------------------------------------------------------------|

   (SEGUI AHORA MAS DISTORCION QUE ANTES)
E|--15-15-15p10-10-10-10-10-10---14s15--10-10p9s10p9------------15-p10-p3-----------------|
B|--15-15-15p10-10-10-10-10-10---14s15--10-10p9s10p9------------15-p10-p3-----------------|
G|----------------------------------------------------12-12-12-------------12-11-12-11-12-|
D|----------------------------------------------------12-12-12-------------12-11-12-11-12-|
A|----------------------------------------------------------------------------------------|
E|----------------------------------------------------------------------------------------|

E|---------------------------------------------------------------------------------------------------------|
B|---------------------------------------------------------------------------------------------------------|
G|---------------------------------------------------------------------------------------------------------|
D|-------------------------5-5-5-5-5-5-5-5-5-5-5-5-5-5-------------------------5-5-5-5-5-5-5-5-5-5-5-5-5-5-|
A|-5-4-3-----------0-1-2-3-5-5-5-5-5-5-5-5-5-5-5-5-5-5-5-4-3-----------0-1-2-3-5-5-5-5-5-5-5-5-5-5-5-5-5-5-|
E|-------5-4-3-4-3---------3-3-3-3-3-3-3-3-3-3-3-3-3-3-------5-4-3-4-3---------3-3-3-3-3-3-3-3-3-3-3-3-3-3-|

E|-----------------------------------------------------|------------------------------|------------------------------|
B|-----------------------------------------------------|------------------------------|------------------15~---------|
G|-----------------------------------------------------|--10s12-12-12-12-12-12-12-12--|--10s12-12-12-12--------------|
D|-------------------------5-5-5-5-5-5-5-5-5-5-5-5-5-5-|--10s12-12-12-12-12-12-12-12--|--10s12-12-12-12--------------|
A|-5-4-3-----------0-1-2-3-5-5-5-5-5-5-5-5-5-5-5-5-5-5-|------------------------------|------------------------------|
E|-------5-4-3-4-3---------3-3-3-3-3-3-3-3-3-3-3-3-3-3-|------------------------------|------------------------------|

E|-------------------------------------|-------------------------------------|-------------------------------------|
B|-------------------------------------|-------------------------------------|-------------------------------------|
G|------------3-4-7p4-----------3-4-7--|------------3-4-7p4-----------3-7-7--|------------3-4-7p4-----------3-4-0--|
D|------0-5---------------0-5----------|------0-5---------------0-5----------|------0-5---------------0-5----------|
A|----------5-----------------5--------|----------5-----------------5--------|----------5-----------------5--------|
E|--0h3---------------0-3--------------|--0h3---------------0-3--------------|--0h3---------------0-3--------------|

E|-------------------------------------|------------------------------|------------------------------|
B|-------------------------------------|------------------------------|------------------------------|
G|------------3-4-7p4-----------3-7-7--|--10s12-12-12-12-12-12-12-12--|--10s12-12-12-12-12-12-12-12--|
D|------0-5---------------0-5----------|--10s12-12-12-12-12-12-12-12--|--10s12-12-12-12-12-12-12-12--|
A|----------5-----------------5--------|------------------------------|------------------------------|
E|--0h3---------------0-3--------------|------------------------------|------------------------------|

E|------------------------------|------------------------------|---------------------------------------------|
B|------------------------------|------------------------------|---------------------------------------------|
G|--10s12-12-12-12-12-12-12-12--|--12-11-12-11-12--------------|----------7~7~-----------7~7~-----------7~7~-|
D|--10s12-12-12-12-12-12-12-12--|--12-11-12-11-12--------------|--5-5--7---------5-5--7---------5-5--7-------|
A|------------------------------|------------------------------|--5-5--7---------5-5--7---------5-5--7-------|
E|------------------------------|------------------------------|--3-3--5---------3-3--5---------3-3--5-------|

E|------------------------------------------------------------------------------|
B|------------------------------------------------------------------------------|
G|--------------------------------------7/4-------------------------------------|
D|--7-7-7-7-7-7-7-7-7-7-7-7-7-7-7-7--5------5-----------------------------------|
A|--7-7-7-7-7-7-7-7-7-7-7-7-7-7-7-7--5------5-----------------------------------|
E|--5-5-5-5-5-5-5-5-5-5-5-5-5-5-5-5--3------3| ds---------------------------------|

   Y VI LO QUIETO QUE ESTABA QUIETO, TOCANC  EL ARPA HOY. DESPERTATE NO ESTAS MUERTO, NO ESPED S!
E|------------------------------------------------------------------------------------------------|
B|------------------------------------------------------------------------------------------------|
G|------------------------------------------------------------------------------------------------|
D|-5---------------5----------------5----------3-----------5--------5------------------5----5-5---|
A|-5---------------5----------------5----------5-----------5--------5------------------5----5-5---|
E|-3---------------3----------------3----------5-----------3--------3------------------3----3-3---|

   NOOO!                    ...DALE!
E|----------------------|-----------------------------------------------------|------------------------------|
B|----------------------|-----------------------------------------------------|------------------------------|
G|----------------------|-----------------------------------------------------|--10s12-12-12-12-12-12-12-12--|
D|--5-------------------|-------------5-5-5-5-5-5-5-5-5-5-5-5-5-5-5-5-5-5-5-5-|--10s12-12-12-12-12-12-12-12--|
A|--5-------------------|-------------5-5-5-5-5-5-5-5-5-5-5-5-5-5-5-5-5-5-5-5-|------------------------------|
E|--3-------------------|-------------3-3-3-3-3-3-3-3-3-3-3-3-3-3-3-3-3-3-3-3-|------------------------------|

E|------------------------------|------------------------------|---------------15p3-----------|
B|------------------------------|------------------------------|------------------------------|
G|--10s12-12-12-12-12-12-12-12--|--10s12-12-12-12-12-12-12-12--|--10s12-12-12-----------------|
D|--10s12-12-12-12-12-12-12-12--|--10s12-12-12-12-12-12-12-12--|--10s12-12-12-----------------|
A|------------------------------|------------------------------|------------------------------|
E|------------------------------|------------------------------|------------------------------|

   TE DUELE A  CABEZA, EL DEC  GORC  DEL PIE, HOY NO! MAÑANA! DALE! A VOS NO HAY PEDAZO QUE TE VENGA BIEN...
E|-----------------------------------------------------------------------------------------------------------|
B|-----------------------------------------------------------------------------------------------------------|
G|-----------------------------------------------------------------------------------------------------------|
D|-5-5-5-5-5-5-5-5-5-5-5-5-5-5-5-5-5-5-5-5-5-5-5-5-5-5-5-5-5-5-5-5-5-5-5-5-5-5-5-5-5-5-5-5-5-5-5-5-5-5-5-5-5-|
A|-5-5-5-5-5-5-5-5-5-5-5-5-5-5-5-5-5-5-5-5-5-5-5-5-5-5-5-5-5-5-5-5-5-5-5-5-5-5-5-5-5-5-5-5-5-5-5-5-5-5-5-5-5-|
E|-3-3-3-3-3-3-3-3-3-3-3-3-3-3-3-3-3-3-3-3-3-3-3-3-3-3-3-3-3-3-3-3-3-3-3-3-3-3-3-3-3-3-3-3-3-3-3-3-3-3-3-3-3-|

   DALE! Y DALE FUERTE...     MUY FUERTE DALE!   CUANC  TENGAS ADEA NTE A  CARA DEL MUTANTE, DAALEE!
E|---------------------------------------------------------------------------------------------------|
B|---------------------------------------------------------------------------------------------------|
G|---------------------------------------------------------------------------------------------------|
D|-5-5-5-5-5-5-5-5-5-5--5555--5-5-5-5-5-5-5-5-5-5-5-5-5-5-5-5-5-5-5-5-5-5-5-5-5-5-5-5-5-5-5----------|
A|-5-5-5-5-5-5-5-5-5-5--5555--5-5-5-5-5-5-5-5-5-5-5-5-5-5-5-5-5-5-5-5-5-5-5-5-5-5-5-5-5-5-5----------|
E|-3-3-3-3-3-3-3-3-3-3--3333--3-3-3-3-3-3-3-3-3-3-3-3-3-3-3-3-3-3-3-3-3-3-3-3-3-3-3-3-3-3-3----------|

   (G  O: IGUAL QUE ANTES)
E|--------------------------------------------------------------------------------|
B|-----------------------------------------------------------------12-10----10----|
G|-7s12-12-12-12---------------------------12-------15p12-12-12----------12----12-|
D|-7s12-12-12-12--12-11-10-9---------12-12----12-12-------------------------------|
A|----------------------------10--------------------------------------------------|
E|--------------------------------------------------------------------------------|

E|--15-15-15p10-10-10-10-10-10---14s15--10-10p9s10p9------------15-p10-p3-----------------|
B|--15-15-15p10-10-10-10-10-10---14s15--10-10p9s10p9------------15-p10-p3-----------------|
G|----------------------------------------------------12-12-12-------------12-11-12-11-12-|
D|----------------------------------------------------12-12-12-------------12-11-12-11-12-|
A|----------------------------------------------------------------------------------------|
E|----------------------------------------------------------------------------------------|

E|---------------------------------------------------------------------------------------------------------|
B|---------------------------------------------------------------------------------------------------------|
G|---------------------------------------------------------------------------------------------------------|
D|-------------------------5-5-5-5-5-5-5-5-5-5-5-5-5-5-------------------------5-5-5-5-5-5-5-5-5-5-5-5-5-5-|
A|-5-4-3-----------0-1-2-3-5-5-5-5-5-5-5-5-5-5-5-5-5-5-5-4-3-----------0-1-2-3-5-5-5-5-5-5-5-5-5-5-5-5-5-5-|
E|-------5-4-3-4-3---------3-3-3-3-3-3-3-3-3-3-3-3-3-3-------5-4-3-4-3---------3-3-3-3-3-3-3-3-3-3-3-3-3-3-|

E|-----------------------------------------------------|------------------------------|------------------------------|
B|-----------------------------------------------------|------------------------------|------------------15~---------|
G|-----------------------------------------------------|--10s12-12-12-12-12-12-12-12--|--10s12-12-12-12--------------|
D|-------------------------5-5-5-5-5-5-5-5-5-5-5-5-5-5-|--10s12-12-12-12-12-12-12-12--|--10s12-12-12-12--------------|
A|-5-4-3-----------0-1-2-3-5-5-5-5-5-5-5-5-5-5-5-5-5-5-|------------------------------|------------------------------|
E|-------5-4-3-4-3---------3-3-3-3-3-3-3-3-3-3-3-3-3-3-|------------------------------|------------------------------|

                   DALE...            DALE...            DALE...            DALE...
E|---------------------------------------------------------------------------------------------|
B|---------------------------------------------------------------------------------------------|
G|---------------------------------------------------------------------------------------------|
D|-5-------------------------------------------------------------------------------------------|
A|-5-------------------------------------------------------------------------------------------|
E|-3ds-----------------------------------------------------------------------------------------|

                   DALE...            DALE...            DALE...            DALE...
E|---------------------------------------------------------------------------------------------|
B|---------------------------------------------------------------------------------------------|
G|---------------------------------------------------------------------------------------------|
D|-5-5-5-5-5-5-5-5-5-5-5-5-5-5-5-5-5-5-5-5-5-5-5-5-5-5-5-5-5-5-5-5-5-5-5-5-5-5-5-5-5-5-5-5-5-5-|
A|-5-5-5-5-5-5-5-5-5-5-5-5-5-5-5-5-5-5-5-5-5-5-5-5-5-5-5-5-5-5-5-5-5-5-5-5-5-5-5-5-5-5-5-5-5-5-|
E|-3-3-3-3-3-3-3-3-3-3-3-3-3-3-3-3-3-3-3-3-3-3-3-3-3-3-3-3-3-3-3-3-3-3-3-3-3-3-3-3-3-3-3-3-3-3-|

   DALE! DALE! DALE! DALE! DALE! DALE! DALE! DALE! DALE! DALE! DALE! DALE! DALE! DALE! DALE! DALE!
E|-------------------------------------------------------------------------------------------------|
B|-------------------------------------------------------------------------------------------------|
G|-------------------------------------------------------------------------------------------------|
D|-5-5-5-5-5-5-5-5-5-5-5-5-5-5-5-5-5-5-5-5-5-5-5-5-5-5-5-5-5-5-5-5-5-5-5-5-5-5-5-5-5-5-5-5-5-5-5-5-|
A|-5-5-5-5-5-5-5-5-5-5-5-5-5-5-5-5-5-5-5-5-5-5-5-5-5-5-5-5-5-5-5-5-5-5-5-5-5-5-5-5-5-5-5-5-5-5-5-5-|
E|-3-3-3-3-3-3-3-3-3-3-3-3-3-3-3-3-3-3-3-3-3-3-3-3-3-3-3-3-3-3-3-3-3-3-3-3-3-3-3-3-3-3-3-3-3-3-3-3-|

   DALE!    DALE!    DAAAAAAAAAAALE!
E|--------------------------------------------| |
B|--------------------------------------------| |
G|--------------------------------------------| |
D|-------5--------5---5-----------5-----------| |
A|-------5--------5---5-----------3-----------| |
E|-------3--------3---3-----------3-----------| |
Outros vídeos desta música
    320 exibições
      • ½ Tom
      • Am
      • Bbm
      • Bm
      • Cm
      • C#m
      • Dm
      • Ebm
      • Em
      • Fm
      • F#m
      • Gm
      • G#m
    • Adicionar à lista

    Afinação da cifra

    Afinador online

      0 comentários

      Ver todos os comentários

      Entre para o Cifra Club PRO

      Tenha acesso a benefícios exclusivos no App e no Site

      • Chega de anúncios

      • Badges exclusivas

      • Mais recursos no app do Afinador

      • Atendimento Prioritário

      • Aumente seu limite de lista

      • Ajude a produzir mais conteúdo

      Cifra Club Pro

      Aproveite o Cifra Club com benefícios exclusivos e sem anúncios
      Cifra Club Pro
      Aproveite o Cifra Club com benefícios exclusivos e sem anúncios
      OK