Cifra Club

Elevador

Catupecu Machu

Cifra: Principal (violão e guitarra)
Selo Cifra Club: esta cifra foi revisada para atender aos critérios oficiais da nossa Equipe de Qualidade.
tom: E
   INTRO (BAJO)
E|--------------------|
B|--------------------|
G|--------------------|
D|--------------------|
A|---3-3-3-2-------2--|
E|-----------3-3-3----|


   GUITAR G  O (RIFF)
E|-------------------------------------------|
B|-------------------------------------------|
G|----5-------------------------5------------|
D|--5------3-5-3-2----2-3-2-3-5-----3-5-3-2--|
A|-------------------------------------------|
E|-------------------------------------------|

E|-----------------------------------------------|
B|-----------------------------------------------|
G|--2---------------5-------------------------5--|
D|----5-3-5-3-2-3-5------3-5-3-2----2-3-2-3-5----|
A|-----------------------------------------------|
E|-----------------------------------------------|

E|---------------------------------------------------------------------------|
B|---------------------------------------------------------------------------|
G|-------------------------4/5--5--4/5--5--4--5--5---------------------4--5--|
D|--3-5-3-2---1-0----------4/5--5--4/5--5--4--5--5--4/5--5--4/5--5--4--4--5--|
A|----------------3-2-0----2/3--3--2/3--3--2--3--3--4/5--5--4/5--5--4--2--3--|
E|--------------------------------------------------2/3--3--2/3--3--2--------|

e |--?-----8-/-12--8----?----------------------|
B |--?-------------------?----------------------|
G |--?--5----------------?----------------------|
D |--?-------------------?----------------------|
A |--?-------------------?----------------------|
E |--?-------------------?----------------------|
Outros vídeos desta música
    35 exibições
      • ½ Tom
      • A
      • Bb
      • B
      • C
      • Db
      • D
      • Eb
      • E
      • F
      • F#
      • G
      • Ab
    • Adicionar à lista

    Afinação da cifra

    Afinador online

      0 comentários

      Ver todos os comentários

      Entre para o Cifra Club PRO

      Tenha acesso a benefícios exclusivos no App e no Site

      • Chega de anúncios

      • Badges exclusivas

      • Mais recursos no app do Afinador

      • Atendimento Prioritário

      • Aumente seu limite de lista

      • Ajude a produzir mais conteúdo

      Cifra Club Pro

      Aproveite o Cifra Club com benefícios exclusivos e sem anúncios
      Cifra Club Pro
      Aproveite o Cifra Club com benefícios exclusivos e sem anúncios
      Ops (: Contenido disponible sólo en portugués.
      OK