Cifra Club

Apathetic

Mad Caddies

Cifra: Principal (violão e guitarra)
tom: A
--9-------9%%-----|
D---7\----5-7\----5-5---55-57\----5-7\----5-5---4---9-------9%%242--|
A---7\---5357\---5353---23-57\---5357\---5353---5---7-------7%%---42|
E---5\---3335\---333-------35\---3335\---333-----------------%%-----|
:
# outro #A c=pinch harmonics b=bend-up one step r=release bend      >
E--|------c------|2X|--------------|-------------------------------->
B--|-------------------------------|-------------------------------->
G--|22-2-2----------77-7-77642-2-22|99-9-96-99-9-99977-7-7-97-66-666>
D--|22-2-2--22-2-22277-7-77642-2-22|-------------------------------->
A--|00-0-0--22-2-22255-5-55420-0-00|77-7-74-77-7-77755-5-5-75-44-444>
E--|------3-00-0-000---------------|-------------------------------->
# outro #B c=pinch harmonics                                        >
E--|------c------|2X|--------------|-------------------------------->
B--|-------------------------------|----------------77-7-7-87-55-555>
G--|22-2-2----------77-7-77642-2-22|66-6-66-64-4-444---------------->
D--|22-2-2--22-2-22277-7-77642-2-22|----------------44-4-4-54-22-222>
A--|00-0-0--22-2-22255-5-55420-0-00|44-4-44-42-2-222---------------->
E--|------3-00-0-000---------------|-------------------------------->
>outroA
>-----------------------------|
>-------------------b-----b---|
>---99-9-96-99-9-9997r67644r--|
>---------------------------57|
>---77-7-74-77-7-777----------|
>-----------------------------|
>outroA
>-----------------------------|
>-----------------------------|
>---66-6-66-64-4-444----------|
>----------------------------7|
>---44-4-44-42-2-2227545424227|
>---------------------------35|
:
00:00 / 00:00
Outros vídeos desta música
Repetir
Outros vídeos desta música
Compositor não encontrado.
244 exibições
    • ½ Tom
    • A
    • Bb
    • B
    • C
    • Db
    • D
    • Eb
    • E
    • F
    • F#
    • G
    • Ab
  • Adicionar à lista

    0 comentários

    Ver todos os comentários

    Conseguiu tocar?

    0 Tocaram 0 Ainda não

    Grave um vídeo tocando Apathetic e nos envie!

    00:00 / 00:00

    Cifra Club Pro

    Aproveite o Cifra Club com benefícios exclusivos e sem anúncios
    Cifra Club Pro
    Aproveite o Cifra Club com benefícios exclusivos e sem anúncios
    OK