Cifra Club

Leavin

Mad Caddies

Cifra: Principal (violão e guitarra)
tom: G
this is a cool song on a cool CD

tuning-standard-EADGBe

This is kinda out of order but bare with me

verse 1

1-2--2--3--2------------------|
2-3--3--3--3------------------|
3-2--4--0--2------------------|
4-0--4--0--0------------------|
5----2--2---------------------|
6-------3---------------------|

riff between verses

1---------------------------|
2---------------------------|
3-4-----7-------------------|
4-4--5--7-------------------|
5-2--5--5-------------------|
6----3----------------------|

pre-chorus

1----------------------|
2----------------------|
3-------4--------------|
4-5--4--4--2-----2-----|
5-5--4--2--2-----2-----|
6-3--2-----0-000-0-----|

Chorus(the chord is under the word)

life goes by so damn quickly for me, wanna have some fun
1----------------------------------------------------------|
2----------------------------------------------------------|
3-7--11-------------------------------12---11--9-----7-----|
4-7--11------9-------5------5---------12---11--9-----7-----|
5-5--9-------9-------5------5---------10---9---7-----5-----|
6------------7-------3------3------------------------------|

Verse 2

1-----------------------------|
2-----------------------------|
3--7-7-7-7-7-7-7-7--4-----7---|
4--7-7-7-7-7-7-7-7--4--5--7---|
5-5---5---5---5-----2--5--5---|
6---5---5---5---5------3------|

Bridge

1-----------------------------------------|
2-----------------------------------------|
3-4-4-4-4------------------7-7-7-7--------|
4-4-4-4-4-4-4-4-4-5-5-5-5--7-7-7-7--------|
5-2-2-2-2-4-4-4-4-5-5-5-5--5-5-5-5--------|
6---------2-2-2-2-3-3-3-3-----------------|

1-----------------------------------------|
2-----------------------------------------|
3-4-4-4-4---------------------------------|
4-4-4-4-4-7-7-7-7-5-5-5-5-----4-----4-----|
5-2-2-2-2-7-7-7-7-5-5-5-5-----4-----4-----|
6---------5-5-5-5-3-3-3-3-222-2-222-2-----|

1-----------------------------------------|
2-----------------------------------------|
3-4-4-4-4------------------7-7-7-7--------|
4-4-4-4-4-4-4-4-4-5-5-5-5--7-7-7-7--------|
5-2-2-2-2-4-4-4-4-5-5-5-5--5-5-5-5--------|
6---------2-2-2-2-3-3-3-3-----------------|

1-------------------------------------------------------------|
2-------------------------------------------------------------|
3-4-4-4-4------------------------------------------7------7---|
4-4-4-4-4-7-7-7-7-5-5-5-5-----4-----5-----7-----5--7------7---|
5-2-2-2-2-7-7-7-7-5-5-5-5-----4-----5-----7-----5--5------5---|
6---------5-5-5-5-3-3-3-3-222-2-333-3-555-5-333-3-------------|

that all

its no all in order but its close- for questions, e-mail me at *
00:00 / 00:00
Outros vídeos desta música
Repetir
Outros vídeos desta música
Composição de Mad Caddies
465 exibições
    • ½ Tom
    • A
    • Bb
    • B
    • C
    • Db
    • D
    • Eb
    • E
    • F
    • F#
    • G
    • Ab
  • Adicionar à lista

    0 comentários

    Ver todos os comentários

    Conseguiu tocar?

    0 Tocaram 0 Ainda não

    Grave um vídeo tocando Leavin e nos envie!

    00:00 / 00:00

    Cifra Club Pro

    Aproveite o Cifra Club com benefícios exclusivos e sem anúncios
    Cifra Club Pro
    Aproveite o Cifra Club com benefícios exclusivos e sem anúncios
    OK