Cifra Club

Monkeys

Mad Caddies

Cifra: Principal (violão e guitarra)
tom: A
-------------..............


*CHORD DIAGRAMS at the bottom of the page*

Intro:

e|-----------|
B|-----------|
G|-----------|
D|-----0--2--|
A|--3--------|
E|-----------|

F  D9  G  C  F  (x2)
F5  Eb5  D5  C#5, F  C  F  (x2)

Verse 1:

F
                   D9
Watch out for them monkeys
            G                 C             F
Those crazy big guys drinking in a bar down-town

e|-----------|
B|-----------|
G|-----------|
D|-----0--2--|
A|--3--------|
E|-----------|

F
                   D9
Watch out for them monkeys
        G                        C             F
They'll knock you right off your feet onto the ground

Chorus 1:

F5       Eb5  D5   C#5  
 They'll take plea-sure 
F          C          F
 Being hor-monally in-sane
F5       Eb5  D5 C#5  
 They'll find so-lace 
F             C                F
 Knocking you right upside the brain

e|-----------|
B|-----------|
G|-----------|
D|-----0--2--|
A|--3--------|
E|-----------|

Instrumental:

F  D9  G  C  F (x2)

Slower:

F  D9  G  C  F (x2)

Verse 2:

F
                   D9
Watch out for them monkeys
            G                 C             F
Those crazy big guys drinking in a bar down-town

e|-----------|
B|-----------|
G|-----------|
D|-----0--2--|
A|--3--------|
E|-----------|

F
                   D9
Watch out for them monkeys
        G                        C             F
They'll knock you right off your feet onto the ground

Chorus 2:

F5       Eb5  D5 C#5  
 They'll find so-lace
F          C          F
 Being hor-monally in-sane
F5       Eb5  D5   C#5  
 They'll take plea-sure 
F             C                F       (stop)
 Knocking you right upside the brain   

Slower:

     C7    B7    Bb7
e|---3-----2-----1---|
B|---5-----4-----3---|
G|---3-----2-----1---|
D|---5-----4-----3---|
A|---3-----2-----1---|
E|-------------------|

    A7    G#7 A7     G#7 A7      G#7 A7 Bb7   Dm   C#m Dm C#m Dm
e|--5--5--4--5--|--5--4--5--|--5--4--5--6--|--5--5--4--5--4--5--------------|
B|--5--5--4--5--|--5--4--5--|--5--4--5--6--|--6--6--5--6--5--6--------------|
G|--6--6--5--6--|--6--5--6--|--6--5--6--7--|--7--7--6--7--6--7----(hold)----|
D|--5--5--4--5--|--5--4--5--|--5--4--5--6--|--7--7--6--7--6--7--------------|
A|--7--7--6--7--|--7--6--7--|--7--6--7--8--|--5--5--4--5--4--5--------------|
E|--5--5--4--5--|--5--4--5--|--5--4--5--6--|--------------------------------|

    G7   F#7 G7      F#7 G7      F#7 G7 G#7   C5   B5   C5
e|--3--3--2--3--|--3--2--3--|--3--2--3--4--|-----------------|
B|--3--3--2--3--|--3--2--3--|--3--2--3--4--|-----------------|
G|--4--4--3--4--|--4--3--4--|--4--3--4--5--|--5----4----5----|
D|--3--3--2--3--|--3--2--3--|--3--2--3--4--|--5----4----5----|
A|--5--5--4--5--|--5--4--5--|--5--4--5--6--|--3----2----3----|
E|--3--3--2--3--|--3--2--3--|--3--2--3--4--|-----------------|

Even Slower (!) :

     C7    B7    Bb7
e|---3-----2-----1---|
B|---5-----4-----3---|
G|---3-----2-----1---|
D|---5-----4-----3---|
A|---3-----2-----1---|
E|-------------------|

    A7    G#7 A7     G#7 A7      G#7 A7 Bb7   Dm   C#m Dm C#m Dm
e|--5--5--4--5--|--5--4--5--|--5--4--5--6--|--5--5--4--5--4--5--------------|
B|--5--5--4--5--|--5--4--5--|--5--4--5--6--|--6--6--5--6--5--6--------------|
G|--6--6--5--6--|--6--5--6--|--6--5--6--7--|--7--7--6--7--6--7----(hold)----|
D|--5--5--4--5--|--5--4--5--|--5--4--5--6--|--7--7--6--7--6--7--------------|
A|--7--7--6--7--|--7--6--7--|--7--6--7--8--|--5--5--4--5--4--5--------------|
E|--5--5--4--5--|--5--4--5--|--5--4--5--6--|--------------------------------|

    C#5    C5       C#5    C5       C#5    C5     C#5          F
e|---------------|---------------|-----------------------------1-----------|
B|---------------|---------------|-----------------------------1-----------|
G|--6--6---5--5--|--6--6---5--5--|--6--6---5--5---6---(stop)---2-----------|
D|--6--6---5--5--|--6--6---5--5--|--6--6---5--5---6------------3---(stop)--|
A|--4--4---3--3--|--4--4---3--3--|--4--4---3--3---4------------3-----------|
E|---------------|---------------|-----------------------------1-----------|

e|-----------|
B|-----------|
G|-----------|
D|-----0--2--|
A|--3--------|
E|-----------|

Verse 3:

F
                   D9
Watch out for them monkeys
            G                 C             F
Those crazy big guys drinking in a bar down-town

e|-----------|
B|-----------|
G|-----------|
D|-----0--2--|
A|--3--------|
E|-----------|

F
                   D9
Watch out for them monkeys
        G                        C             F5      Eb5  D5  C#5  C5     F
They'll knock you right off your feet onto the ground



CHORD DIAGRAMS:
---------------

   F       D9      G       C        F5      Eb5      D5     C#5   
 
 EADGBE  EADGBE  EADGBE  EADGBE  EAD G BE  EADGBE  EADGBE  EADGBE  
 133211  x5455x  320003  x32010  x81010xx  x688xx  x577xx  x466xx  

   C7      B7     Bb7      A7      G#7     Dm     C#m      C5      B5    

 EADGBE  EADGBE  EADGBE  EADGBE  EADGBE  EADGBE  EADGBE  EADGBE  EADGBE  
 x35353  x24242  x13131  575655  464544  x57765  x46654  x355xx  x244xx 


*Alternative SKA CHORDS for Verses*


CHORD DIAGRAMS:
---------------

   F       D9      G       C      
 
 EADGBE  EADGBE  EADGBE  EADGBE  
 xxx565  xx7778  xxx433  xxx553


Tabbed by Joel from cLuMsY, Bristol, England, 2005 (*)
Compositor não encontrado.
428 exibições
    • ½ Tom
    • A
    • Bb
    • B
    • C
    • Db
    • D
    • Eb
    • E
    • F
    • F#
    • G
    • Ab
  • Adicionar à lista

    0 comentários

    Ver todos os comentários

    Conseguiu tocar?

    0 Tocaram 0 Ainda não

    Grave um vídeo tocando Monkeys e nos envie!

    00:00 / 00:00
    Outros vídeos desta música
    Repetir Qualidade Automático
    Outros vídeos desta música
    00:00 / 00:00
    Automático

    Cifra Club Pro

    Aproveite o Cifra Club com benefícios exclusivos e sem anúncios
    Cifra Club Pro
    Aproveite o Cifra Club com benefícios exclusivos e sem anúncios
    OK