Cifra Club

No Se

Mad Caddies

Cifra: Principal (violão e guitarra)
tom: E
Intro 2x:
E|-------------------------------|
B|-------------------------------|
G|-------5----5-5-5-7----5-5-7-7-|
D|-5-----5----5-5-5-7----5-5-7-7-|
A|-5-----3----3-3-3-5----3-3-5-5-|
E|-3-----------------------------|
                                          
E|-3-3-3-3--0---0-0-0-0--0---3-3-3-3--0--2-2-2-1-0-|
B|-3-3-3-3--0---1-1-1-1--0---3-3-3-3--0--3-3-3-2-1-|
G|-4-4-4-4------0-0-0-0------4-4-4-4-----2-2-2-1-0-|
D|-5-5-5-5-------------------5-5-5-5---------------|
A|-------------------------------------------------|
E|-------------------------------------------------|

Verso 1:
E|--3---0----3---2-2-2-1-0----|
B|--3---1----3---3-3-3-2-1----|
G|--4---0----4---2-2-2-1-0----|
D|--5--------5----------------|
A|----------------------------|
E|----------------------------|

Ponte:
    G5                                 F5
E|----------------------------------|---------------------------------|
B|----------------------------------|---------------------------------|
G|--------4-4-4-7-7-------5-5-5-4-4-|-------4-4-4-5-5-7-7-7-5-5-5-4-4-|
D|--5-5-5-----------5-5-5-----------|-3-3-3---------------------------|
A|----------------------------------|---------------------------------|
E|----------------------------------|---------------------------------|
    E5                            ditto
E|-----------------------------|--------------|
B|-----------------------------|--------------|
G|-------4-4-4-5-5-4-4-4-------|--------------|
D|-2-2-2-----------------5-5-5-|-5-5-5--7-7-7-|
A|-----------------------------|-3-3-3--5-5-5-|
E|-----------------------------|--------------|

Pre-Verso:
E|-3------------0-------------0-----------2--|
B|-3--hold------1----hold-----2---hold----3--|
G|-4------------0-------------2-----------2--|
D|-5------------2-------------2-----------0--|
A|--------------3-------------0--------------|
E|-------------------------------------------|

Verso 2 - 2x:
E|-----------------------|------------------------|----------------------|
B|-----------------------|------------------------|----------------------|
G|-----------------------|----9-10-12-9h10p9----9-|----------------------|
D|-----9-10-12-10-9----9-|-10----------------10---|----9-10-12-10-9----9-|
A|--10--------------10---|------------------------|-10--------------10---|
E|-----------------------|------------------------|----------------------|

E|--------------------------||
B|--------------------------||
G|----11-12-14-----10----9--||
D|-12-----------11----10----||
A|--------------------------||
E|--------------------------||

Cowboy:
E|-------------------------|------------------------|----------------------|
B|------x-10-x-12-x-10-----|-----x-15-x-17-x-15-----|-----x-10-x-12-x10----|
G|-/12----------------x-12-|/17----------------x-17-|/12---------------x12-|
D|-------------------------|------------------------|----------------------|
A|-------------------------|------------------------|----------------------|
E|-------------------------|------------------------|----------------------|
1.|                         2.|
E|------x-12-x-14-x-12------||---------------------------------|
B|--/15----------------x-15-||---------------------------------|
G|--------------------------||---------------------------------|
D|--------------------------||-12h14p12------------------------|
A|--------------------------||----------14-12-124p12\10-12^-10-|
E|--------------------------||---------------------------------|
Compositor não encontrado.
Colaboração e revisão:
  • Jefferson Sousa
51 exibições
    • ½ Tom
    • A
    • Bb
    • B
    • C
    • Db
    • D
    • Eb
    • E
    • F
    • F#
    • G
    • Ab
  • Adicionar à lista

    0 comentários

    Ver todos os comentários

    Conseguiu tocar?

    0 Tocaram 0 Ainda não

    Grave um vídeo tocando No Se e nos envie!

    00:00 / 00:00
    Outros vídeos desta música
    Repetir Qualidade Automático
    Outros vídeos desta música
    00:00 / 00:00
    Automático

    Cifra Club Pro

    Aproveite o Cifra Club com benefícios exclusivos e sem anúncios
    Cifra Club Pro
    Aproveite o Cifra Club com benefícios exclusivos e sem anúncios
    OK