Cifra Club

The Belltower

Mad Caddies

Cifra: Principal (violão e guitarra)
tom: C
Intro:
    F       C      A
E|--------------------|
B|--1------5-5-----5--|
G|--2------5-5-----6--|   (2x)
D|--3------5-5-----7--|
A|--3------3-3-----7--|
E|--1--------------5--| 

Verso:
    A           F     C
E|--------------------------|
B|--5--5--5--5--1--1--5--5--|
G|--6--6--6--6--2--2--5--5--|
D|--7--7--7--7--3--3--5--5--|
A|--------------------------|
E|--------------------------|

Pré-Refrão:
(...I look up to the mountain)
    A                 C   G
E|-----------------------------|
B|--5-----5-----5-----5-5------|
G|--6-----6-----6-----5-5-5-5--|
D|--7-----7-----7-----5-5-5-5--|
A|--------------------3-3-5-5--|
E|------------------------3-3--|

Refrão:
   C       G       F           G
E|----------------------------------|
B|-5-5-5-5-3-3-3-3-1-1-1-1-1-1-3-3--|
G|-5-5-5-5-4-4-4-4-2-2-2-2-2-2-4-4--|   (3x)
D|-5-5-5-5-5-5-5-5-3-3-3-3-3-3-5-5--|
A|----------------------------------|
E|----------------------------------|
   C       G       F             G
E|----------------------------------|
B|-5-5-5-5-3-3-3-3-1-1-1-1--1----3--|
G|-5-5-5-5-4-4-4-4-2-2-2-2--2----4--|
D|-5-5-5-5-5-5-5-5-3-3-3-3--3----5--|
A|----------------------------------|
E|----------------------------------|

Outro:
   F       C     A       F       C     E
E|----------------------------------------|
B|-1-------5-5---5-------1-------5-5---9--|
G|-2-------5-5---6-------2-------5-5---9--|
D|-3-------5-5---7-------3-------5-5---9--|
A|-3-------3-3---7-------3-------3-3---7--|
E|-1-------------1------------------------|
Compositor não encontrado.
Colaboração e revisão:
  • Jefferson Sousa
195 exibições
    • ½ Tom
    • A
    • Bb
    • B
    • C
    • Db
    • D
    • Eb
    • E
    • F
    • F#
    • G
    • Ab
  • Adicionar à lista

    0 comentários

    Ver todos os comentários

    Conseguiu tocar?

    0 Tocaram 0 Ainda não

    Grave um vídeo tocando The Belltower e nos envie!

    00:00 / 00:00
    Outros vídeos desta música
    Repetir Qualidade Automático
    Outros vídeos desta música
    00:00 / 00:00
    Automático

    Cifra Club Pro

    Aproveite o Cifra Club com benefícios exclusivos e sem anúncios
    Cifra Club Pro
    Aproveite o Cifra Club com benefícios exclusivos e sem anúncios
    OK