Cifra Club

Devorados

Madame Saatan

Cifra: Principal (violão e guitarra)
tom: F
pm - palm mute (abafar as cordas com a mão direita)
/ - slide up (arrastar o dedo de uma nota até outra, subindo a escala)
\ - slide down (arrastar o dedo de uma nota até outra, descendo a escala)

  Intro
e|---------------------|
B|---------------------|
G|---------------------|
D|---------------------|
A|-000-0-0-0---000-0-0-|
D|-000-0-0-0---000-0-0-|
 |---------pm----------|

  (8x)
e|-----------|
B|-----------|
G|-----------|
D|-----------|
A|-0---12-10-|
D|-0---12-10-|

e|-------|
B|-------|
G|-------|
D|-------|
A|-3---5-|
D|-3---5-|

  (4x)
e|-----------||-----------------------------------------------------------|
B|-----------||-----------------------------------------------------------|
G|-----------||-----------------------------------------------------------|
D|-----------||---------44---------44-----44---------55---------55-----55-|
A|-0---12-10-||-----------------------------------------------------------|
D|-0---12-10-||-4-4-4-4----4-4-4-4----4-4----5-5-5-5----5-5-5-5----5-5----|
                |--pm-|    |--pm-|    pm    |--pm--|   |--pm--|    |pm|

  A noite acordam e são devorados
  Eles os mesmo, as ruas, as horas


e|--------------------------------------------------------------------|
B|--------------------------------------------------------------------|
G|--------------------------------------------------------------------|
D|--------------------------------------------------------------------|
A|-8-8---8-8---8---8-8---8/10-10---10---10/12-12---12-12---12---3---5-|
D|-8-8---8-8---8---8-8---8/10-10---10---10/12-12---12-12---12---3---5-|

  Sentem o que acham que existe
  Por que temem e não descobrem
  Desespero, ordem das almas insones
  Fingem e costumam estar

e|-------------------------------------------------------------------|
B|-------------------------------------------------------------------|
G|-------------------------------------------------------------------|
D|-------------------------------------------------------------------|
A|-12\---0---10--12---0---12\---0---10--12---0--1---1-1-1-1--1--3--3-|
D|-12\---0---10--12---0---12\---0---10--12---0--1---1-1-1-1--1--3--3-|
                                                   |-pm-|

  Dormindo nos braços da estátua
  Com folhas nos dentes
  Dormindo nos braços da estátua
  Com folhas nos dentes

e|---------------------|
B|---------------------|
G|---------------------|
D|---------------------|
A|-000-0-0-0---000-0-0-|
D|-000-0-0-0---000-0-0-|
 |---------pm----------|

  (4x)
e|-----------||-----------------------------------------------------------|
B|-----------||-----------------------------------------------------------|
G|-----------||-----------------------------------------------------------|
D|-----------||---------44---------44-----44---------55---------55-----55-|
A|-0---12-10-||-----------------------------------------------------------|
D|-0---12-10-||-4-4-4-4----4-4-4-4----4-4----5-5-5-5----5-5-5-5----5-5----|
                |--pm-|    |--pm-|    pm    |--pm--|   |--pm--|    |pm|

  A noite acordam e são devorados
  Eles os mesmo, as ruas, as horas

e|--------------------------------------------------------------------|
B|--------------------------------------------------------------------|
G|--------------------------------------------------------------------|
D|--------------------------------------------------------------------|
A|-8-8---8-8---8---8-8---8/10-10---10---10/12-12---12-12---12---3---5-|
D|-8-8---8-8---8---8-8---8/10-10---10---10/12-12---12-12---12---3---5-|

  Sentem o que acham que existe
  Por que temem e não descobrem
  Desespero, ordem das almas insones
  Fingem e costumam estar

e|-------------------------------------------------------------------|
B|-------------------------------------------------------------------|
G|-------------------------------------------------------------------|
D|-------------------------------------------------------------------|
A|-12\---0---10--12---0---12\---0---10--12---0--1---1-1-1-1--1--3--3-|
D|-12\---0---10--12---0---12\---0---10--12---0--1---1-1-1-1--1--3--3-|
                                                   |-pm-|

  Dormindo nos braços da estátua
  Com folhas nos dentes
  Dormindo nos braços da estátua
  Com folhas nos dentes

  base do solo (2x)
e|---------------------------------------------|
B|---------------------------------------------|
G|---------------------------------------------|
D|---------------------------------------------|
A|-12\---0---10--12---0---12\---0---10--12---0-|
D|-12\---0---10--12---0---12\---0---10--12---0-|

e|----------------------------------|
B|----------------------------------|
G|----------------------------------|
D|----------------------------------|
A|-8-----8-----12-----3---3/5--5--5-|
D|-8-----8-----12-----3---3/5--5--5-|

e|-------------------------------------------------------------------|
B|-------------------------------------------------------------------|
G|-------------------------------------------------------------------|
D|-------------------------------------------------------------------|
A|-12\---0---10--12---0---12\---0---10--12---0--1---1-1-1-1--1--3--3-|
D|-12\---0---10--12---0---12\---0---10--12---0--1---1-1-1-1--1--3--3-|
                                                   |-pm-|

e|---------------------------------|
B|---------------------------------|
G|---------------------------------|
D|---------------------------------|
A|-7--7--7-5--8--8-7--7--7-5--6--6-|
D|-7--7--7-5--8--8-7--7--7-5--6--6-|

  E então histórias em sombras de glórias
  Não dizem nada

e|-------------------------------|
B|-------------------------------|
G|-------------------------------|
D|-------------------------------|
A|-7--7--7-5--8--8-7--7--7-5---3-|
D|-7--7--7-5--8--8-7--7--7-5---3-|

  E então histórias em sombras de glórias
  Fingem e costumam estar.

e|-------------------------------------------------------------------|
B|-------------------------------------------------------------------|
G|-------------------------------------------------------------------|
D|-------------------------------------------------------------------|
A|-12\---0---10--12---0---12\---0---10--12---0--1---1-1-1-1--1--3--3-|
D|-12\---0---10--12---0---12\---0---10--12---0--1---1-1-1-1--1--3--3-|
                                                   |-pm-|

  Dormindo nos braços da estátua
  Com folhas nos dentes
  Dormindo nos braços da estátua
  Com folhas nos dentes

  (4x)
e|-----------------|
B|-----------------|
G|-------------13b-|
D|-----------------|
A|-12\---0-0-0-----|
D|-12\---0-0-0-----|

  (4x)
e|-----------------------||-------|
B|-----------------------||-------|
G|-----------------------||-------|
D|-----------------------||-------|
A|-12\---0---10--12\---0-||-0-1-3-|
D|-12\---0---10--12\---0-||-0-1-3-|
                           |--pm--|

  Final (8x)
e|---------------------|
B|---------------------|
G|---------------------|
D|---------------------|
A|-3-5-5--3--5b--------|
D|---------------0-1-3-|
                 |-pm-|
00:00 / 00:00
Outros vídeos desta música
Repetir
Outros vídeos desta música
Composição de Sammliz
Colaboração e revisão:
  • Renato Santos
2.310 exibições
    • ½ Tom
    • A
    • Bb
    • B
    • C
    • Db
    • D
    • Eb
    • E
    • F
    • F#
    • G
    • Ab
  • Adicionar à lista

    0 comentários

    Ver todos os comentários

    Entre para oCifra Club PRO

    Tenha acesso a benefícios exclusivos no App e no Site

    • Chega de anúncios

    • Prioridade de compra em lançamentos

    • Mais recursos no app do Afinador

    • Atendimento Prioritário

    • Descontos nos produtos Cifra Club

    • Ajude a produzir mais conteúdo

    00:00 / 00:00

    Cifra Club Pro

    Aproveite o Cifra Club com benefícios exclusivos e sem anúncios
    Cifra Club Pro
    Aproveite o Cifra Club com benefícios exclusivos e sem anúncios
    OK