Cifra Club

Vela

Madame Saatan

Cifra: Principal (violão e guitarra)
tom: Bb
# - harmônico natural. basta deixar o dedo suavemente em cima da corda
pm - palm mute (abafar as cordas com a mão direita)
x - notas abafadas com a mão esquerda

  Intro (4x)     (4x)
e|-------------||-------------|
B|-------------||-------------|
G|-------------||-------------|
D|-------------||-------------|
A|-5--5--6-4-0-||-5--5--6-4-0-|
D|-5--5--6-4-0-||-5--5--6-4-0-|
                       |--pm--|
  
e|----------------------------------------------|----------------------------------------|
B|----------------------------------------------|----------------------------------------|
G|----------------------------------------------|----------------------------------------|
D|----------------------------------------#5555-|----------------------------------------|
A|-0--0--3-5-6-0--0----0--0--3-5-6---0-0--------|-0--0--3-5-6-0--0----0--0--3-5-6---0-00-|
D|-0--0--------0--0----0--0----------0-0--------|-0--0--------0--0----0--0----------0-00-|
    pm          pm      pm           pm            pm          pm      pm            pm

e|----------------------------------------------|---------------------------------------|
B|----------------------------------------------|---------------------------------------|
G|----------------------------------------------|---------------------------------------|
D|----------------------------------------#5555-|---------------------------------------|
A|-0--0--3-5-6-0--0----0--0--3-5-6---0-0--------|-0--0--3-5-6-0--0----0--0--3-5-6---0-0-|
D|-0--0--------0--0----0--0----------0-0--------|-0--0--------0--0----0--0----------0-0-|
    pm          pm      pm           pm            pm          pm      pm            pm

  Tambor e sinos dobram
  Ebós, matintas, cruzes
  Calor fervendo almas
  Suor em mãos e cordas

  Filhos de Deus em lótus
  Devotos, sagrado ócio
  Na hora divina da vida mundana

e|---------------------------|
B|---------------------------|
G|---------------------------|
D|---------------------------|
A|-35-5--3-5-6-5------0-00-0-|
D|----------------0---0-00-0-|
                      |-pm-|

  Fogos nas fitas em braços
  Que acendem velas pra Deus, Diabo
  Rezam e dançam o Auto do Céu

e|---------------------------------|
B|---------------------------------|
G|---------------------------------|
D|---------------------------------|
A|-35-5--3-5-6-5-------00-0-0-0-00-|
D|-----------------0---00-0-0-0-00-|
                      |-----pm-----|

  Profano circo, sagrada força

e|---------------------------------------|
B|---------------------------------------|
G|---------------------------------------|
D|------------------8--7-----------------|
A|-xx--x-8--7-xx--x------xx--x-8--7-6--6-|
D|----------------------------------6--6-|

  Ninguém dorme
  Antes bebe com entidades e santos
  Só dança quando passa a última vela chorando

e|----------------------------------------|
B|----------------------------------------|
G|----------------------------------------|
D|----------------------------------------|
A|-0--0--3-5-6-0--0----0--0--3-5-6---00-0-|
D|-0--0--------0--0----0--0----------00-0-|
    pm          pm      pm            pm

e|----------------------------------------------|---------------------------------------|
B|----------------------------------------------|---------------------------------------|
G|----------------------------------------------|---------------------------------------|
D|----------------------------------------#5555-|---------------------------------------|
A|-0--0--3-5-6-0--0----0--0--3-5-6---0-0--------|-0--0--3-5-6-0--0----0--0--3-5-6---0-0-|
D|-0--0--------0--0----0--0----------0-0--------|-0--0--------0--0----0--0----------0-0-|
    pm          pm      pm           pm            pm          pm      pm            pm

  Lançar na rua os fogos
  Dormir noite de mantos
  Chorar, enquanto gente
  Que passa, reza e chove

  Enfim soltar cordões de pássaros
  Deixar que ateu até seja
  Ninguém está condenado
  Ninguém está aprovado

e|---------------------------|
B|---------------------------|
G|---------------------------|
D|---------------------------|
A|-35-5--3-5-6-5------0-00-0-|
D|----------------0---0-00-0-|
                      |-pm-|

  Fogos nas fitas em braços
  Que acendem velas pra Deus, Diabo
  Rezam e dançam o Auto do Céu

e|---------------------------------|
B|---------------------------------|
G|---------------------------------|
D|---------------------------------|
A|-35-5--3-5-6-5-------00-0-0-0-00-|
D|-----------------0---00-0-0-0-00-|
                      |-----pm-----|

  Profano circo, sagrada força

e|---------------------------------------|
B|---------------------------------------|
G|---------------------------------------|
D|------------------8--7-----------------|
A|-xx--x-8--7-xx--x------xx--x-8--7-6--6-|
D|----------------------------------6--6-|

  Ninguém dorme
  Antes bebe com entidades e santos
  Só dança quando passa a última vela...

  (3x)
e|--------------|
B|--------------|
G|--------------|
D|--------------|
A|-5-6--6--6--6-|
D|-5-6--6--6--6-|
 |------pm------| 

e|---------------------------------------------|
B|---------------------------------------------|
G|---------------------------------------------|
D|---------------------------------------------|
A|-5--3--2-3-0--2--3-5-8--8--7-7-55-5-6-66-4-0-|
D|-5--3--2-3-0--2--3-5-8--8--7-7-55-5-6-66-4-0-|

  Vezes dissonantes e divinos em cores e sons
  Vezes dissonantes e divinos em silêncio

  base do solo
e|-------------------------||-------------|
B|-------------------------||-------------|
G|-------------------------||-------------|
D|-------------------------||-5-5-5-5-5-5-|
A|-0--0--3-5-6-0--0--3-5-6-||-3-3-3-3-3-3-|
D|-0--0--------0--0--3-5-6-||-------------|
    pm        |-----pm-----||  |----pm----|

e|---------------|
B|---------------|
G|---------------|
D|---------------|
A|-0--0--3-5-6-0-|
D|-0--0--------0-|
    pm         pm 

  Fogos nas fitas em braços
  Que acendem velas pra Deus, Diabo
  Rezam e dançam o Auto do Céu
  Profano circo, Sagrada força

e|---------------------------------------|
B|---------------------------------------|
G|---------------------------------------|
D|------------------8--7-----------------|
A|-xx--x-8--7-xx--x------xx--x-8--7-6--6-|
D|----------------------------------6--6-|

  Ninguém dorme
  Antes bebe com entidades e santos
  Só dança quando passa a última vela chorando

  Ninguém dorme
  Antes bebe com entidades e santos
  Só dança quando passa a última vela...

  (3x)
e|--------------|
B|--------------|
G|--------------|
D|--------------|
A|-5-6--6--6--6-|
D|-5-6--6--6--6-|

  (3x)
e|----------------||----------------|
B|----------------||----------------|
G|----------------||----------------|
D|----------------||----------------|
A|-5-5-5--5-6-4-0-||-5-5-5--5-6-4-0-|
D|-5-5-5--5-6-4-0-||----------------|
                  ||-------pm-------|

  Final (4x)     (4x)
e|-------------||-------------|
B|-------------||-------------|
G|-------------||-------------|
D|-------------||-------------|
A|-5--5--6-4-0-||-5--5--6-4-0-|
D|-5--5--6-4-0-||-5--5--6-4-0-|
                       |--pm--|

e|-----------------|
B|-----------------|
G|-----------------|
D|-----------------|
A|-0--0--3-5-6-0-0-|
D|-0--0--------0-0-|
    pm         pm
00:00 / 00:00
Outros vídeos desta música
Repetir
Outros vídeos desta música
Composição de Sammliz
Colaboração e revisão:
  • Renato Santos
2.428 exibições
    • ½ Tom
    • A
    • Bb
    • B
    • C
    • Db
    • D
    • Eb
    • E
    • F
    • F#
    • G
    • Ab
  • Adicionar à lista

    0 comentários

    Ver todos os comentários

    Entre para oCifra Club PRO

    Tenha acesso a benefícios exclusivos no App e no Site

    • Chega de anúncios

    • Prioridade de compra em lançamentos

    • Mais recursos no app do Afinador

    • Atendimento Prioritário

    • Descontos nos produtos Cifra Club

    • Ajude a produzir mais conteúdo

    00:00 / 00:00

    Cifra Club Pro

    Aproveite o Cifra Club com benefícios exclusivos e sem anúncios
    Cifra Club Pro
    Aproveite o Cifra Club com benefícios exclusivos e sem anúncios
    OK