Cifra Club

Aprenda

No Regrets

Magic!

Cifra: Principal (violão e guitarra)
tom: G
   C          Em         D          G       D/F#
E|-----0-------------------------------------------|
B|-------1--------8----------7-----------12-----10-|
G|---------0--------0----------0-------------------|
D|---2----------5-----5----4-----4-----9------8----|
A|-3----------7----------5----------10------9------|
E|-------------------------------------------------|

   C          Em         D 
E|-----0-----------------------------------------|
B|-------1--------8----------7-------------------|
G|---------0--------0----------------0-----------|
D|---2----------5-----5----4---0-2-4---4-2-0-----|
A|-3----------7----------5-------------------3-3-|
E|-----------------------------------------------|

   C          Em         D          G       D/F#
E|-----0-------------------------------------------|
B|-------1--------8----------7---------------------|
G|---------0--------0----------0---------0------0--|
D|---2----------5-----5----4-----4-----9------8----|
A|-3----------7----------5----------10------9------|
E|-------------------------------------------------|

   C          Em         D          G       D/F#
E|-----0-------------------------------------------|
B|-------1--------8----------7-----------12-----10-|
G|---------0--------0----------0-------------------|
D|---2----------5-----5----4-----4-----9------8----|
A|-3----------7----------5----------10------9------|
E|-------------------------------------------------|

   C          Em         D          G       D/F#
E|-----0-------------------------------------------|
B|-------1--------8----------7---------------------|
G|---------0--------0----------0---------0------0--|
D|---2----------5-----5----4-----4-----9------8----|
A|-3----------7----------5----------10------9------|
E|-------------------------------------------------|

   C          Em         D          G       D/F#
E|-----0-------------------------------------------|
B|-------1--------8----------7-----------12-----10-|
G|---------0--------0----------0-------------------|
D|---2----------5-----5----4-----4-----9------8----|
A|-3----------7----------5----------10------9------|
E|-------------------------------------------------|

   C          Em         D          
E|-----0-------------------------|
B|-------1--------8----------7-~-|
G|---------0--------0------------|
D|---2----------5-----5----4-----|
A|-3----------7----------5-------|
E|-------------------------------|

C                      Em
   The world isn't over yet
D                 G                   D/F#
    We've still got a chance to place our bets
C                      Em
We both made a little mess
D                     G                D/F#       
    Nothing our two hearts can't put back
C                      Em
I'll never love you less
D                 G                   D/F#
    Don't let your worries second guess
C                      Em
We'll start over fresh
D                 G                   D/F#
    Living a life with no regrets
C                      Em

D                 G                   D/F#
    Living a life with no regrets
C               Em                 D

C             Em           D         G  D/F#
   I've got my issues, I admit that
C             Em           D         G  D/F#
   You got some things that hold you back
C             Em           D         G  D/F#
   But we are acting like we're children
C             Em           D         G  D/F#
   Looking to blame for what we lack
C             Em           D         G  D/F#
Before we lose everything we have tomorrow
                  C              Em             D
Can we forget what went wrong yesterday, darling

C                      Em
   The world isn't over yet
D                             G      D/F#
    We've still got a chance to place our bets
C                            Em
We both made a little mess
D                     G                D/F#       
    Nothing our two hearts can't put back
C               Em
I'll never love you less
D                        G      D/F#
    Don't let your worries second guess
C                 Em
We'll start over fresh
D                    G        D/F#
    Living a life with no regrets
C                      Em

D               G      D/F#
    Living a life with no regrets
C              Em             D

C             Em           D         G  D/F#
   I know you're driving yourself crazy
C             Em           D         G  D/F#
   Thinking that time has passed you by
C             Em           D         G  D/F#
   And you're not close to where you said you'd be
C             Em           D         G  D/F#
   But tell me, who is in this life?
                  C       Em      D      G  D/F#
Before we lose everything we have tomorrow
                  C               Em              D
Can we forget what went wrong yesterday, so darling

C                      Em
    The world isn't over yet
D                             G      D/F#
    We've still got a chance to place our bets
C                            Em
We both made a little mess
D                   G                G  D/F#
    Nothing our two hearts can't put back
C               Em
I'll never love you less
D                        G      D/F#
    Don't let your worries second guess
C                 Em
We'll start over fresh
D              G              D/F#
    Living a life with no regrets
C             Em

D            G                D/F#
    Living a life with no regrets
C            Em            D

C                   Em
   The world isn't over
D                    G      D/F#
   We could always start over
C                          Em
   No weight on our shoulders
D                    G        D/F#
   The world isn't over, darling
C                    Em
   The world isn't over
D                     G      D/F#
   We could always start over
C                          Em
   No weight on our shoulders
D               G        D/F#    C     Em   D
   Living a life with no regrets, say
G      D/F#     Em   D   G  D/F#  Em  D   C(9)
Life with no regrets
Colaboração e revisão:
  • Alexandre Gütschow
  • Otavio Grangeiro
6.412 exibições
    • ½ Tom
    • A
    • Bb
    • B
    • C
    • Db
    • D
    • Eb
    • E
    • F
    • F#
    • G
    • Ab
  • Adicionar à lista

    0 comentários

    Ver todos os comentários

    Conseguiu tocar?

    3 Tocaram 0 Ainda não

    Grave um vídeo tocando No Regrets e nos envie!

    00:00 / 00:00
    outros vídeos desta música
    repetir qualidade Automático
    Outros vídeos desta música
    00:00 / 00:00
    Automático

    Cifra Club Pro

    Aproveite o Cifra Club com benefícios exclusivos e sem anúncios
    Cifra Club Pro
    Aproveite o Cifra Club com benefícios exclusivos e sem anúncios
    OK