Cifra Club

Rude

Magic!

Cifra: Guitarra (violão e guitarra)
exibições 180.561
Tom: C#
Primeira Parte:

  P.N. . . . . .   . . . . . . .
E|------------------------------------------|
B|------------------------------------------|
G|-3-----3-3---6\--5-----5-5---5/-----------|
D|-4-x-x-4-4-x-8\--6-x-x-6-6-x-6/-----------|
A|------------------------------------------|
E|------------------------------------------|

   P.M. .  .  . .  .   . . . . . . . 
E|------------------------------------------|
B|------------------------------------------|
G|-10-----10-10---13\--6-----6-6---6\5------|
D|-11-x-x-11-11-x-15\--8-x-x-8-8-x-8\6------|
A|------------------------------------------|
E|------------------------------------------|

Gb           Ab                    Db
   Saturday morning jumped out of bed
     Bbm                Gb
And put on my best suit
           Ab                   Db
Got in my car and raced like a jet
Bbm                Gb
All the way to you
                 Ab
Knocked on your door
                  Db
With heart in my hand
   Bbm                Gb
To ask you a question
                    Ab
'cause I know that you're 
                  Db  Bbm
An old-fashioned man


Pré-Refrão:

 Gb
Can I have your daughter 
         Ab
For the rest of my life?
     Db
Say yes, say yes
          Bbm
'cause I need to know
               Gb
You say: I'll never get your blessing 
          Ab
'til the day I die
       Db        Ab
Tough luck, my friend
        Bbm
But the answer is no!


Refrão:

   Gb            Ab
E|------------------------------------------|
B|------------------------------------------|
G|------------------------------------------|
D|------------------------------------------|
A|-4----------------------------------------|
E|-2----x-x-x-x-/4~---x--x-x-x-x------------|

   Db            Bbm
E|------------------------------------------|
B|------------------------------------------|
G|------------------------------------------|
D|-6----------------------------------------|
A|-4----x-x-x-x-----------------------------|
E|--------------/6\4\-----------------------|

   Gb            Ab
E|------------------------------------------|
B|------------------------------------------|
G|------------------------------------------|
D|------------------------------------------|
A|-4----------------------------------------|
E|-2----x-x-x-x-/4~---x--x-x-x-x------------|

   Db            Bbm
E|------------------------------------------|
B|------------------------------------------|
G|------------------------------------------|
D|-6----------------------------------------|
A|-4----x-x-x-x-----------------------------|
E|--------------/6----x-x-x-x---------------|

Gb                Ab         Db
   Why you gotta be so rude?
                    Bbm        Gb
Don't you know I'm human, too?
               Ab         Db
Why you gotta be so rude?
           Bbm
I'm gonna marry her anyway


E|------------------------------------------|
B|------------------------------------------|
G|------------------------------------------|
D|---------------------------6--6--6--------|
A|-4---------4--6----1h4--6--4--4--6--------|
E|-2----4h6-----4---------------------------|

E|------------------------------------------|
B|------------------------------------------|
G|------------------------------------------|
D|-3----------------------------------------|
A|-1----1-3h4-3-----------------------------|
E|--------------6-4-------------------------|

 Gb5
Marry that girl
 Ab5
Marry her anyway
 Db5
Marry that girl
       Bb5
Yeah, no matter what you say
 Gb5
Marry that girl
     Ab5
And we'll be a family
Db5                      Bb5
    Why you gotta be so rude?


Segunda Parte:

Gb            Ab
   I hate to do 
                Db
This you leave no choice
       Bbm             Gb
Can't live without her
            Ab
Love me or hate me
            Db
We will be boys 
         Bbm           Gb
Standing at that altar
            Ab      Db
Or we will run away 
            Bbm          Gb
To another galaxy, you know
                   Ab          Db
You know she's in love with me
            Bbm
She will go anywhere I go


Pré-Refrão:

 Gb
Can I have your daughter 
         Ab
For the rest of my life?
     Db
Say yes, say yes
          Bbm
'cause I need to know
               Gb
You say: I'll never get your blessing 
          Ab
'til the day I die
       Db        Ab
Tough luck, my friend
           Bbm
'cause the answer's still no!


Refrão:

Gb                Ab         Db
   Why you gotta be so rude?
                    Bbm        Gb
Don't you know I'm human, too?
               Ab         Db
Why you gotta be so rude?
           Bbm
I'm gonna marry her anyway

 Gb5
Marry that girl
 Ab5
Marry her anyway
 Db5
Marry that girl
 Bb5
No matter what you say
 Gb5
Marry that girl
     Ab5
And we'll be a family
Db5                Bb5   Gb   Ab  Db  Bbm
    Why you gotta be so rude?
 Gb  Ab  Db  Bbm
Rude


Solo: Gb  Ab  Db  Bbm

E|------9-11-9--14b16----11b13-11-9-11-----------------|
B|-9/11--------------------------------9h11br11p9------|
G|-----------------------------------------------------|
D|-----------------------------------------------------|
A|-----------------------------------------------------|
E|-----------------------------------------------------|

E|-----------------------------------------------------|
B|-----------------------------------------------------|
G|-3-6-3/6\3/6\3-6-3-----------------------------------|
D|-3-6-3/6\3/6\3-6-3-6/8-------------------------------|
A|-----------------------6h8-6-6h8--6h8--6\4-----------|
E|-----------------------------------------------------|

E|-----------------------------------------------------|
B|-9--9-9-9--------------------------------------------|
G|----------6--6--8/10--10\8--6~-----------------------|
D|-----------------------------------------------------|
A|-----------------------------------------------------|
E|-----------------------------------------------------|

E|-----------9~----------------------------------------|
B|-9-11-9-11-------------------------------------------|
G|-----------------------------------------------------|
D|-----------------------------------------------------|
A|-----------------------------------------------------|
E|-----------------------------------------------------|


Pré-Refrão:

E|------2---------4h6------------9----------|
B|-2---------4--------4-----9---------6-----|
G|-3---------5-------------10---------6-----|
D|-4---------6-------------11---------8-----|
A|-4---------6-------------11---------8-----|
E|-2---------4--------------9---------6-----|

E|------2h4---------4-----------------------|
B|-2--------4--4----------------------------|
G|-3-----------5-------6--------------------|
D|-4-----------6-------6--8--6--------------|
A|-4-----------6----------------9--6h8--6\4~|
E|-2-----------4----------------------------|

 Gb
Can I have your daughter 
         Ab
For the rest of my life?
     Db
Say yes, say yes
          Bbm
'cause I need to know
               Gb
You say: I'll never get your blessing 
          Ab
'til the day I die
      
Tough luck, my friend

But No still means No!


Refrão Final:

Gb                Ab         Db
   Why you gotta be so rude?
                    Bbm        Gb
Don't you know I'm human, too?
               Ab         Db
Why you gotta be so rude?
           Bbm
I'm gonna marry her anyway

 Gb5
Marry that girl
 Ab5
Marry her anyway
 Db5
Marry that girl
 Bb5
No matter what you say
 Gb5
Marry that girl
     Ab5              Db5
And we'll be a family
               Bb5   Gb5  Ab5  Db5
Why you gotta be so rude?
               Bb5   Gb5  Ab5  Db5
Why you gotta be so rude?
               Bb5
Why you gotta be so rude?
Acordes para:
    Composição: Nasri Atweh Colaboração e revisão:

    0 comentários

    mostrar mais comentários

    Conseguiu tocar?

    34 tocaram 0 ainda não

    Grave um vídeo tocando Rude e mande pra gente!

    00:00 / 00:00
    outros vídeos desta música
    repetir qualidade Automático
    Outros vídeos desta música
    00:00 / 00:00
    Automático
    Capítulos
    • Tocando a música
    • Dicas Iniciais / Equipamentos
    • Acordes da Primeira Parte
    • Tocando a Primeira Parte
    • Ritmo da Primeira Parte
    • Primeira Parte - Riff
    • Acordes do Pré-Refrão
    • Tocando o Pré-Refrão
    • Ritmo do Pré-Refrão
    • Acordes do Refrão
    • Tocando o Refrão e Segunda Parte
    • Refrão - Primeiro Riff
    • Refrão - Segundo Riff
    • Tocando o Pré-Refão - Solo
    • Solo - Parte 1 de 4
    • Solo - Parte 2 de 4
    • Solo - Parte 3 de 4
    • Solo - Parte 4 de 4
    • Tocando o Pré-Refrão (Final)
    • Pré-Refão (Final)
    • Encerramento
    • Ficha Técnica
    OK