Cifra Club

Rude

Magic!

Tab de baixo: Principal
exibições 30.648
Introdução voz e guitarra

Saturday morning jumped out of bed...

Primeira parte

Knocked on your door with heart in my hand...

Parte 1

G|--------------------------------------------|
D|--------4-4-4/6--6---6------6-6-6/11--------|
A|------4------------6---4--4-----------------|
E|-9\-2---------------------------------------|

G|--------------------------------------------|
D|-----------4-4-4/6--6---6-----6-6-6/8-6h8-6-|
A|---------4------------6---4-4---------------|
E|-0-4-0-2------------------------------------|

Pre-Refrão 

Parte 1

Can I have your daughter for the rest...

G|--------------------------------------------|
D|--------------------------------------------|
A|-----------3/8------6/9--11h13-11-----------|
E|-0-2-4h6-4-----8\6--------------------------|

G|--------------------------------------------|
D|-8/11-10-8----------------------------------|
A|--------------------------------------------|
E|--------------------------------------------|

Refrão

Why you gotta be so rude?

Parte 1

G|--------------------------------------------|
D|-----4--4-4--6---6-----6-6-6/8--------------|
A|---4-----------6---4-4----------------------|
E|-2-----------------------------0-4-0--------|

G|--------------------------------------------|
D|-----4--4-4--6---6-----6-6-6/8--------------|
A|---4-----------6---4-4---------3-4-3--------|
E|-2-----------------------------------6-4----|

Parte 2 ( tocar 2x )

G|--------------------------------------------|
D|--------------------------------------------|
A|-----4-----6-4-4--4/7---3-4-3---------------|
E|-2-2---4-4------------6-------6-4-----------|

Introdução 2

Parte 1

G|--------------------------------------------|
D|-----4-4-4/6--6---6------6-6-6/8------------|
A|---4------------6---4--4--------------------|
E|-2------------------------------------------|

Segunda parte 

Parte 1

I hate to do this, you leave no choice...

G|--------------------------------------------|
D|---------4-4-4----6---6-----6-6-6/8---------|
A|-------4------------6---4-4-----------------|
E|-x-6-2--------------------------------------|

G|--------------------------------------------|
D|-------4-4-4/6--6---6-----6-6-6/8-----------|
A|-----4------------6---4-4-------------------|
E|-0-2------------------------------6\--------|

Parte 2

G|--------------------------------------------|
D|-----4-4-4/6--6---6-----6-6-6/8-------------|
A|---4------------6---4-4---------------------|
E|-2-----------------------------0-4-0--------|

G|--------------------------------------------|
D|-----4-4-4/6--6---6-----6-6-6/8--6h8-6------|
A|---4------------6---4-4---------------------|
E|-2------------------------------------------|

Pré-Refrão 2

Can I have your daughter for the rest... 

Parte 1

G|--------------------------------------------|
D|--------------------------------------------|
A|-----------3/8------6/9--11h13-11-----------|
E|-0-2-4h6-4-----8\6--------------------------|

G|--------------------------------------------|
D|-8/11-10-8----------------------------------|
A|--------------------------------------------|
E|--------------------------------------------|

Refrão 2

Why you gotta be so rude?

Parte 1

G|--------------------------------------------|
D|-----4--4-4--6---6-----6-6-6/8--------------|
A|---4-----------6---4-4----------------------|
E|-2-----------------------------0-4-0--------|

G|--------------------------------------------|
D|-----4--4-4--6---6-----6-6-6/8--------------|
A|---4-----------6---4-4---------3-4-3--------|
E|-2-----------------------------------6-4----|

Parte 2 ( tocar 2x )

G|--------------------------------------------|
D|--------------------------------------------|
A|-----4-----6-4-4--4/7---3-4-3---------------|
E|-2-2---4-4------------6-------6-4-----------|

Introdução 3

Parte 1

G|--------------------------------------------|
D|-----4-4-4/6--6---6------6-6-6/8------------|
A|---4------------6---4--4--------------------|
E|-2------------------------------------------|

G|--------------------------------------------|
D|-----------4-4-4/6--6---6-----6-6-6/8-6h8-6-|
A|---------4------------6---4-4---------------|
E|-0-4-0-2------------------------------------|

Solo de guitarra

Parte 1

G|--------------------------------------------|
D|-------4-4-4/6--6---6------6-6-6/8----------|
A|-----4------------6---4--4------------------|
E|-0-2----------------------------------------|

G|--------------------------------------------|
D|-----------4-4-4/6-6---6-----6-6-6/8-8-8-8-8|
A|---------4-----------6---4-4----------------|
E|-0-4-0-2------------------------------------|

Pré-Refrão 3 ( só voz e guitarra )

Can I have your daughter for the rest... 

Refrão 3

Why you gotta be so rude?

Parte 1

G|--------------------------------------------|
D|-----4--4-4--6---6-----6-6-6/8--------------|
A|---4-----------6---4-4----------------------|
E|-2-----------------------------0-4-0--------|

G|--------------------------------------------|
D|-----4--4-4--6---6-----6-6-6/8--------------|
A|---4-----------6---4-4---------3-4-3--------|
E|-2-----------------------------------6-4----|

Parte 2 ( tocar 4x )

G|--------------------------------------------|
D|--------------------------------------------|
A|-----4-----6-4-4--4/7---3-4-3---------------|
E|-2-2---4-4------------6-------6-4-----------|
Composição: Nasri Atweh Colaboração e revisão:
  • Reginaldo Costa
  • Arthur Gustavo

0 comentários

mostrar mais comentários

Conseguiu tocar?

7 tocaram 0 ainda não

Grave um vídeo tocando Rude e mande pra gente!

00:00 / 00:00
outros vídeos desta música
repetir qualidade Automático
Outros vídeos desta música
00:00 / 00:00
Automático
Capítulos
  • Tocando a Música
  • Dicas Iniciais / Equipamentos
  • Configurações do Pedal
  • Dicas sobre as linhas de reggae
  • Dicas sobre oitavas
  • Dicas sobre arpejos
  • Dicas sobre contra tempo
  • Ensinando a Primeira Parte e Pré-Refrão
  • Ensinando o Primeiro Refrão
  • Ensinando a Intro 2, Segunda Parte e Pré-Refrão
  • Ensinando a Intro 3 e Solo
  • Ensinando Refrão 3 e Final
  • Encerramento
  • Ficha Técnica / Erros de Gravação
OK