Cifra Club

Traí Sim (part. Zé Neto e Cristiano)

Maiara e Maraisa

Cifra: Principal (violão e guitarra)
Tom: Am
[Intro] Am  F  G

E|------------------------------------------|
B|-1-0h1---1-0h1----5-5/6-6-----------------|
G|-------2-------2--------------------------|
D|------------------2-2/3-3-----------------|
A|------------------------------------------|
E|------------------------------------------|

E|------------------------------------------|
B|-6/8-8-8-8-6-5-5/6\5----------------------|
G|------------------------------------------|
D|-3/5-5-5-5-3-2-2/3\2----------------------|
A|------------------------------------------|
E|------------------------------------------|

[Primeira Parte]

 Am                                          F
Sabe aquele dia que eu pedi pra você ir embora
                                 C
Da casa do seu amigo e você não foi
             G
Eu fiquei sozinha

                 Am                             
E olha só pra você, eu assinei o Netflix sem poder
F                                              C
  E fiz até um jantarzinho pra impressionar você
            G
E você não veio

[Pré-Refrão]

                  Am   
Você só quer rolê  
                                  F
Fica só na bebedeira pra se aparecer
                                       C
Eu fiquei até altas horas e nada de você
                G
Você queria o quê?

[Refrão]

   Am
Traí
       F      Dm7 
Traí, sim, traí
G               Am  F
  E trairia de novo
         Dm7 
Você queria ser sucesso
          G                      Am
Então tá aí seu nome na boca do povo

   F
Traí
       Dm7
Traí, sim
G               Am  F
  E trairia de novo
         Dm7 
Você queria ser sucesso
          G                      Am
Então tá aí seu nome na boca do povo

[Solo] F  Dm7  G 
       Am  F  Dm7  G 

E|------------------------------------------|
B|-1-0h1---1-0h1----5-5/6-6-----------------|
G|-------2-------2--------------------------|
D|------------------2-2/3-3-----------------|
A|------------------------------------------|
E|------------------------------------------|

E|------------------------------------------|
B|-6/8-8-8-8-6-5-5/6\5----------------------|
G|------------------------------------------|
D|-3/5-5-5-5-3-2-2/3\2----------------------|
A|------------------------------------------|
E|------------------------------------------|

E|------------------------------------------|
B|-3-5-6~--8-10-8~--------------------------|
G|------------------------------------------|
D|------------------------------------------|
A|------------------------------------------|
E|------------------------------------------|

[Primeira Parte]

Am                             
  Eu assinei o Netflix sem poder
F                                              C
  E fiz até um jantarzinho pra impressionar você
            G
E você não veio

[Pré-Refrão]

                  Am   
Você só quer rolê  
                                  F
Fica só na bebedeira pra se aparecer
                                       C
Eu fiquei até altas horas e nada de você
                G
Você queria o quê?

[Refrão]

   Am
Traí
       F      Dm7 
Traí, sim, traí
G               Am  F
  E trairia de novo
         Dm7 
Você queria ser sucesso
          G                      Am
Então tá aí seu nome na boca do povo

   F
Traí
       Dm7
Traí, sim
G               Am  F
  E trairia de novo
         Dm7 
Você queria ser sucesso
          G                      Am
Então tá aí seu nome na boca do povo

   F
Traí
       Dm7
Traí, sim
G               Am  F
  E trairia de novo
         Dm7 
Você queria ser sucesso
          G                      Am
Então tá aí seu nome na boca do povo

[Final] F  Dm7  G 
        Am  F  G  Am

E|------------------------------------------|
B|-1-0h1---1-0h1----5-5/6-6-----------------|
G|-------2-------2--------------------------|
D|------------------2-2/3-3-----------------|
A|------------------------------------------|
E|------------------------------------------|

E|------------------------------------------|
B|-6/8-8-8-8-6-5-5/6\5----------------------|
G|------------------------------------------|
D|-3/5-5-5-5-3-2-2/3\2----------------------|
A|------------------------------------------|
E|------------------------------------------|
exibições 18.861
Acordes para:

    0 comentários

    mostrar mais comentários

    Conseguiu tocar?

    3 tocaram 2 ainda não

    Grave um vídeo tocando Traí Sim (part. Zé Neto e Cristiano) e mande pra gente!

    00:00 / 00:00
    outros vídeos desta música
    repetir qualidade Automático
    Outros vídeos desta música
    00:00 / 00:00
    Automático
    OK