Cifra Club

Todo Lo Que Soy

Maite Perroni

Cifra: Principal (violão e guitarra)
tom: C
                C         G                       Am
E|----------------------------10-10-------10------8-|
B|---------------------8-8-8---------8-8------12----|
G|----9/10--12-12--12-------------------------------|
D|--------------------------------------------------|
A|--------------------------------------------------|
E|--------------------------------------------------|

           Em            F       Dm             G
E|--8-10-12-13-12--8-------------------------10-10--|
B|---------------------10--10-12-13-10-13-----------|
G|--------------------------------------------------|
D|--------------------------------------------------|
A|--------------------------------------------------|
E|--------------------------------------------------|

E|-13-12--------------------------------------------|
B|-------13-----------------------------------------|
G|----------13-12-10--------12----------------------|
D|--------------------13-12-------------------------|
A|--------------------------------------------------|
E|--------------------------------------------------|

          C
Aqui me tienes
   G                          Am
Dibujando tu sonrisa em el silencio
  A7                              Dm
Atrapado entre la imensidad del tiempo
         Fm                      G
No há dejado de buscarte al despertar

          D
Aqui me tienes
   A                           Bm
Abrazando ma'la idea de que regreses
         B7                               Em
Porque píenso al diário y um million de veces
         Gm                      A
Que no puedo ser la misma si no estas

                D
Si todo lo que soy
             A                            Bm
Es porque tenemos esta historia entre los dos
               F#m                     G
Es porque tu hiciste que entender al corazon
             E7
Que antes de ti
          A
Yo no era yo

             D
Todo lo que soy
               A                         Bm
Es porque tus besos me enseñaran que el amor
         F#m                         G
Puede atravesar cualquir barera sin temor
           E            A
Yo no era asi antes de ti
 G         D Em A
Nunca fui yo

          D
Aqui me tienes
   A                          Bm
Afuerando ma'la idea de no perderte
  F#m                          B7
Resgatando del vacio algo de suerte
     Gm                           A
Convencerte que sin ti nada es igual

           D
Aqui me tienes
     A                         Bm
Inventando de pretextos para hablarte
     F#m                        Em
Para que no se haga demasiado tarde
        Gm                      A
Y que vuelvas a mi lado una vez mas

                D
Si todo lo que soy
             A                            Bm
Es porque tenemos esta historia entre los dos
               F#m                     G
Es porque tu hiciste que entender al corazon
             E
Que antes de ti
          A
Yo no era yo

            D
Todo lo que soy
               A                         Bm
Es porque tus besos me enseñaran que el amor
         F#m                         G
Puede atravesar cualquir barera sin temor
           E            A
Yo no era asi antes de ti

   Bm      G             D          A
No se caminar, si nos estas junto a mi
     Em        Bm      A
Mis pasos no quieren seguir
   Bm        G          D       A
Si intento volar um segundo sin ti
   Em         Bm      A
Mis alas no quieren abrir

( G F# Bm Am D G Bm G A F#m G Bm G A )

             D
Todo lo que soy
               A                         Bm
Es porque tus besos me enseñaran que el amor
         F#m                         G
Puede atravesar cualquir barera sin temor
           E            A
Yo no era asi antes de ti
 G         D
Nunca fui yo
00:00 / 00:00
Outros vídeos desta música
Repetir
Outros vídeos desta música
Composição de J. Eduardo Murguia / Mauricio L. Arriaga
Colaboração e revisão:
  • Bruno
  • Rosy Melo
4.288 exibições
    • ½ Tom
    • A
    • Bb
    • B
    • C
    • Db
    • D
    • Eb
    • E
    • F
    • F#
    • G
    • Ab
  • Adicionar à lista

    0 comentários

    Ver todos os comentários

    Entre para oCifra Club PRO

    Tenha acesso a benefícios exclusivos no App e no Site

    • Chega de anúncios

    • Prioridade de compra em lançamentos

    • Mais recursos no app do Afinador

    • Atendimento Prioritário

    • Descontos nos produtos Cifra Club

    • Ajude a produzir mais conteúdo

    00:00 / 00:00

    Cifra Club Pro

    Aproveite o Cifra Club com benefícios exclusivos e sem anúncios
    Cifra Club Pro
    Aproveite o Cifra Club com benefícios exclusivos e sem anúncios
    OK