Cifra Club

Que Eu Odeio

Maldita

Cifra: Principal (violão e guitarra)
tom: E
*(wah wah)
E|------------------------------------|
B|------------------------------------|
G|-----4-2-4/6-6-5-5-----4-2-4-4-2-2--|
D|-2-4---------------2-4--------------|
A|------------------------------------|
E|------------------------------------|

E|--------------------------------------------------------|
B|--------------------------------------------------------|
G|--------------------------------------------------------|
D|--------------------------------------------------------|
A|-4-4-4-7-7-6-6-7-7-6-6-7-6-7-4-4-4-7-7-6-6-8-8-7-6-7-6--|
E|-2-2-2-5-5-4-4-5-5-4-4-5-4-5-2-2-2-5-5-4-4-6-6-5-4-5-4--|

*(wah wah)
E|------------------------------------|
B|------------------------------------|
G|-----4-2-4/6-6-5-5-----4-2-4-4-2-2--|
D|-2-4---------------2-4--------------|
A|------------------------------------|
E|------------------------------------|

E|--------------------------------------------------------|
B|--------------------------------------------------------|
G|--------------------------------------------------------|
D|--------------------------------------------------------|
A|-4-4-4-7-7-6-6-7-7-6-6-7-6-7-4-4-4-7-7-6-6-8-8-7-6-7-6--|
E|-2-2-2-5-5-4-4-5-5-4-4-5-4-5-2-2-2-5-5-4-4-6-6-5-4-5-4--|

*(wah wah)
E|------------------------------------|
B|------------------------------------|
G|-----4-2-4/6-6-5-5-----4-2-4-4-2-2--|
D|-2-4---------------2-4--------------|
A|------------------------------------|
E|------------------------------------|

E|---------------------------------
B|---------------------------------
G|---------------------------------
D|--12-11-12-11-------12-11-12-11--
A|--------------12-12--------------
E|---------------------------------

E|--------------------------------------------------------|
B|--------------------------------------------------------|
G|--------------------------------------------------------|
D|--------------------------------------------------------|
A|-4-4-4-7-7-6-6-7-7-6-6-7-6-7-4-4-4-7-7-6-6-8-8-7-6-7-6--|
E|-2-2-2-5-5-4-4-5-5-4-4-5-4-5-2-2-2-5-5-4-4-6-6-5-4-5-4--|

E|---------------------------------
B|---------------------------------
G|---------------------------------
D|--12-11-12-11-------12-11-12-11--
A|--------------12-12--------------
E|---------------------------------

E|--------------------------------------------------------|
B|--------------------------------------------------------|
G|--------------------------------------------------------|
D|--------------------------------------------------------|
A|-4-4-4-7-7-6-6-7-7-6-6-7-6-7-4-4-4-7-7-6-6-8-8-7-6-7-6--|
E|-2-2-2-5-5-4-4-5-5-4-4-5-4-5-2-2-2-5-5-4-4-6-6-5-4-5-4--|
00:00 / 00:00
Outros vídeos desta música
Repetir
Outros vídeos desta música
Composição de Erich Mariani
Colaboração e revisão:
  • Sharlys Santos
4.470 exibições
    • ½ Tom
    • A
    • Bb
    • B
    • C
    • Db
    • D
    • Eb
    • E
    • F
    • F#
    • G
    • Ab
  • Adicionar à lista

    0 comentários

    Ver todos os comentários

    Entre para oCifra Club PRO

    Tenha acesso a benefícios exclusivos no App e no Site

    • Chega de anúncios

    • Prioridade de compra em lançamentos

    • Mais recursos no app do Afinador

    • Atendimento Prioritário

    • Descontos nos produtos Cifra Club

    • Ajude a produzir mais conteúdo

    00:00 / 00:00

    Cifra Club Pro

    Aproveite o Cifra Club com benefícios exclusivos e sem anúncios
    Cifra Club Pro
    Aproveite o Cifra Club com benefícios exclusivos e sem anúncios
    OK