Cifra Club

Aprenda

Los Angeles

Malibu Stacy

Cifra: Principal (violão e guitarra)
tom: C
INTRO:

E|------------|
B|------------|
G|-----7------|
D|-5---7---2--|
A|-5---5---2--|
e|-3-------0--|

VERSO (Com palm-mute):

E|------------|
B|------------|
G|------------|
D|-5---4---2--|
A|-5---5---2--|
e|-3---2---0--|

WO-HO-OH:

E|----------------|
B|----------------|
G|-9---7---4-5----|
D|-9---7---5-5----|
A|-7---5---5-5----|
e|---------3-3----|

E|------------------|
B|--------------(5)-|
G|-9--11--12-11--5--|
D|-9--11--12-11--5--|
A|-7--9---10-9---3--|
e|------------------|

INTRO:

E|------------|
B|------------|
G|-----7------|
D|-5---7---2--|
A|-5---5---2--|
e|-3-------0--|

E|-----------------|
B|-----------------|
G|-------7---------|
D|---5-7-7-7b8-7-5~|
A|-7---------------|
e|-0---------------|

WO-HO-OH:

E|----------------|
B|----------------|
G|-9---7---4-5----|
D|-9---7---5-5----|
A|-7---5---5-5----|
e|---------3-3----|

E|-----------------|
B|-----------------|
G|-9--11--12-11-10-|
D|-9--11--12-11-10-|
A|-7--9---10-9--7--|
e|-----------------|

SOLO MOOG:

E|--------------------------|
B|--------------------------|
G|-12-------7--9--12--------|
D|-12---10--7--9--12--10--7-|
A|-10---10--5--7--10--10--5-|
e|------8-------------8---5-|

PONTE (Dedilhe as seguintes notas):

C G C G... E|--------------|
           B|--------------|
           G|-9----9-11-12-|
           D|-9-10-9-11-12-|
           A|-7-10-7-9--10-|
           e|---8----------|

WO-HO-OH (2x)

É por aí... tem bastante correção pra fazer ainda... mas é basicamente isso.
Colaboração e revisão:
  • Arthur Puhl
993 exibições
    • ½ Tom
    • A
    • Bb
    • B
    • C
    • Db
    • D
    • Eb
    • E
    • F
    • F#
    • G
    • Ab
  • Adicionar à lista

    0 comentários

    Ver todos os comentários

    Conseguiu tocar?

    0 Tocaram 0 Ainda não

    Grave um vídeo tocando Los Angeles e nos envie!

    00:00 / 00:00
    outros vídeos desta música
    repetir qualidade Automático
    Outros vídeos desta música
    00:00 / 00:00
    Automático

    Cifra Club Pro

    Aproveite o Cifra Club com benefícios exclusivos e sem anúncios
    Cifra Club Pro
    Aproveite o Cifra Club com benefícios exclusivos e sem anúncios
    OK