Cifra Club

Mariposa Traicionera

Maná

Cifra: Principal
exibições 118.479
Tom: G#
Intro: Fm D# C# G#

Solo da Introdução


  Fm
E|----------------------8----------8----------8------------------
B|--9----9----9----9----9----9-----9-----9----9----9-----11/8----
G|-10---10---10---10--------10----------10--------10-----10/8----


  D#
E|----------------------6----------6----------6------------------
B|--8----8----8----8----8----8-----8-----8----8----8-----9/6-----
G|--8----8----8----8---------8-----------8---------8-----8/6-----


  C#                                                             G#
E|-----4------4------4------4------4-----------------------------
B|--6-----6------6------6------6------6/8-----6-----------4------
G|--6-----6------6------6------6------6/8-----6-----3/5-------5--


D|--6----5h6p5---------------------------------------------------
A|--------------8---6---8----------------------------------------


Fm                 D#
Eres como una mariposa, vuelas y te posas
                C#
vas de boca en boca
                              G#
fácil y ligera de quien te provoca
Fm                      D#
Yo soy raton de tu ratonera
                             C#
trampa que no mata pero no libera
                   G#
vivo muriendo prisionero.


C#    D#          G#
Mariposa traicionera
           Fm
todo se lo lleva el viento
C#    D#        C7
mariposa no regreso.


F
Ay, mariposa de amor, mi mariposa de amor,
                C
ya no regreso contigo
Gm                 *                  C7
ay, mariposa de amor, mi mariposa de amor,
                    F
nunca jamas junto a ti

vuela amor, vuela dolor,
                   A#
y no regreses a un la'o
                    F
y ábrete de flor en flor
     C7             F              A#
seduciendo a los pistilos
                F
y vuela cerca del sol
          C7                F
pa' que sientas lo que es dolor.


Repete a introdução e os mesmos acordes da primeira parte.

Ay mujer, como haces daño
pasan los segundo cual si fueran años
mira estos celos me están matando.
Ay mujer, que fácil eres
abres tus alitas, muslos de colores
donde se posan tus amores.


C#    D#          G#
Mariposa traicionera
           Fm
todo se lo lleva el viento
C#    D#        C7
mariposa no regreso.


F
Ay, mariposa de amor, mi mariposa de amor,
                C
ya no regreso contigo
Gm                 *                  C7
ay, mariposa de amor, mi mariposa de amor,
                   F
nunca jamas junto a ti

vuela amor, vuela dolor,
                     A#
que tengas suerte en tu vida
                F
ay, ay, ay, ay, ay, dolor
C7                   F
yo te lloré todo un río
A#                F
ay, ay, ay, ay, ay, amor
C7                F
tú te me vas a volar.
Acordes para:
    Colaboração e revisão:

    0 comentários

      mostrar mais comentários

      Conseguiu tocar?

      3tocaram0ainda não

      Grave um vídeo tocando Mariposa Traicionera e mande pra gente!

      00:00 / 00:00
      outros vídeos desta música
      repetirqualidadeautomática
      Outro vídeos desta música
        00:00 / 00:00
        automática
        OK