Cifra Club

Sabanas frias

Maná

Cifra: Principal (violão e guitarra)
exibições 7.760
Tom: G
Este es el riff principal (riff 1) de la canción, se toca 
en el intro y en todos los versos:

E|------------------7--------------------------------------------| 
B|---------8-----8--------10-----------5--------------7----------| 
G|------9-----9--------9------9-----5-----5--------8-----8-------| 
D|---9---------------------------7-----------7--9----------------| 
A|---------------------------------------------------------------| 
E|---------------------------------------------------------------| 

Cómo me duele este frío, aquí en mi cama.
Cómo yo extraño tus besos en madrugada.
Quisiera dormir amor sobre tus pechos.
Quisiera vivir amor atado a tus huesos.


 Riff 2: se toca 2 veces, la ultima vez termina asi--|
                                                     |
E|--7-x-7-x-7-7-7-x-7-x-5-x-5-x-5-5-7-x-7-x-|-------------| 
B|--8-x-8-x-8-8-8-x-8-x-5-x-5-x-5-5-7-x-7-x-|-------------| 
G|--9-x-9-x-9-9-9-x-9-x-5-x-5-x-5-7-8-x-8-x-|---8/11~~~---| 
D|--9-x-9-x-9-9-9-x-9-x-7-x-7-x-7-7-9-x-9-x-|-------------|
A|--7-x-7-x-7-7-7-x-7-x-7-x-7-x-7-7-9-x-9-x-|-------------| 
E|--x-x-x-x-x-x-x-x-x-x-5-x-5-x-5-5-7-x-7-x-|-------------| 


Estas sábanas mi amor están muy frías,
ven a darme tu calor y arráncame el dolor, epale !
Yo te quiero compartir toda mi vida,
te comparto mi cuarto, mi cama y todo mi amor.


 Riff 3 se toca 2 veces:

E|--------------------------| 
B|-8-8-8--8-8-8--7--5--4----| 
G|-9-9-9--9-9-9--7--5--4----| 
D|-9-9-9--9-9-9--7--5--4----| 
A|-7-7-7--7-7-7--5--3--2----| 
E|--------------------------|

CORO: 

Em             D  C     B
Vente a vivir conmigo amor, que mi sábana está fría.
Vente a vivir conmigo amor, porque mi cama está vacía.
Vente a vivir conmigo amor, hiriendo a mis sentimientos.
Sábanas frías sin su amor.

Riff 4:

E|--7--------5--------3-----3----5----------| 
B|--8-----8--7-----7--5-------5--7-----7----| 
G|--9---9----7---7----5---5------7---7------| 
D|--9-9------7-7------5-5--------7-7--------| 
A|--7--------5--------3----------5----------| 
E|------------------------------------------|

Aquí se toca el riff 1 otra vez:

Y te cuidaré por siempre, y donde quiera
te amaré como uno quiere a su bandera

Y aquí entra el riff 2, y se sigue tocando el riff 1:

Yo te quiero compartir todo, todo mi amor.
Te comparto mi cuarto mi cama, mis besos y todo, todo amor.

Aquí entra un piano, es igual al coro anterior, pero 
ahora con los siguientes acordes:

F#m            E  D    C#   (2 veces)

CORO:

F#m            E  D    C#
Vente a vivir conmigo amor, ay vamo'al caribe mexicano
Vente a vivir conmigo amor, no le cuente a su mamá sólo a su hermana
Vente a vivir conmigo amor, yo te hago el café por la mañana.
Sábanas frías sin su amor.

Vente a vivir conmigo amor, vente a vivir conmigo amor.
Vente a vivir conmigo amor, ay ven ven ya para acá, ay mamá.
Vente a vivir conmigo amor, vente a vivir con Maná.
Sábanas frías sin su amor.

Sábanas frías sin su amor, qué dolor, qué dolor.
Sábanas frías sin su amor, qué dolor, qué dolor.


Y así sigue hasta el final, donde entra una guitarra para el fade out.

dedicado a maru que la quiero mucho
Acordes para:
    Colaboração e revisão:
    • luis sales

    0 comentários

    mostrar mais comentários

    Conseguiu tocar?

    0 tocaram 0 ainda não

    Grave um vídeo tocando Sabanas frias e mande pra gente!

    00:00 / 00:00
    outros vídeos desta música
    repetir qualidade Automático
    Outros vídeos desta música
    00:00 / 00:00
    Automático
    OK