Cifra Club

La Confession

Manau

Cifra: Principal (violão e guitarra)
Selo Cifra Club: esta cifra foi revisada para atender aos critérios oficiais da nossa Equipe de Qualidade.
tom: Em
  Em                        B7
  .     .     .     .      .     .     .     .      
E|------------------------|------------------------|
B|------------------0-----|------------0-----------|
G|------------0--------0--|------2--------2-----2--|
D|------2--------2--------|---1-----1--------1-----|
A|---2-----2--------------| 2-----------------------|
E|0-----------------------|------------------------|

[00:05] (Intro pattern)
  Em                        B7
  .     .     .     .      .     .     .     .      
E|------------------------|------------------------|
B|------------------0-----|------------0-----------|
G|------------0--------0--|------2--------2-----2--|
D|------2--------2--------|---1-----1--------1-----|
A|---2-----2--------------| 2-----------------------|
E|0-----------------------|------------------------|

[00:10]
  Em
  .     .     .     .      .     .     .     .      
E|------------------------|------------------------|
B|------------------0-----|------------------------|
G|------------0--------0--|------------------------|
D|------2--------2--------|------------------------|
A|---2-----2--------------|------------------------|
E|0-----------------------|------------------------|

[00:15] (Intro pattern)
  Em                        B7
  .     .     .     .      .     .     .     .      
E|------------------------|------------------------|
B|------------------0-----|------------0-----------|
G|------------0--------0--|------2--------2-----2--|
D|------2--------2--------|---1-----1--------1-----|
A|---2-----2--------------| 2-----------------------|
E|0-----------------------|------------------------|

[00:20] (Intro pattern)
  Em                        B7
  .     .     .     .      .     .     .     .      
E|------------------------|------------------------|
B|------------------0-----|------------0-----------|
G|------------0--------0--|------2--------2-----2--|
D|------2--------2--------|---1-----1--------1-----|
A|---2-----2--------------| 2-----------------------|
E|0-----------------------|------------------------|


[00:25]
  Em                        B7
  .     .     .     .      .     .     .      .      
E|------------------------|-------------------------|
B|------------------0-----|------------0------------|
G|------------0--------0--|------2--------2/4-2--0--|
D|------2--------2--------|---1-----1---------------|
A|---2-----2--------------| 2------------------------|
E|0-----------------------|-------------------------|

[00:30]
  Em                        
  .     .     .     .      .     .     .      .      
E|------------------------|-------------------------|
B|------------------0-----|-------------------------|
G|------------0--------0--|-------------------------|
D|------2--------2--------|-------------------------|
A|---2-----2--------------|-------------------------|
E|0-----------------------|-------------------------|

[00:35] (Intro pattern)
  Em                        B7
  .     .     .     .      .     .     .     .      
E|------------------------|------------------------|
B|------------------0-----|------------0-----------|
G|------------0--------0--|------2--------2-----2--|
D|------2--------2--------|---1-----1--------1-----|
A|---2-----2--------------| 2-----------------------|
E|0-----------------------|------------------------|

[00:40]
  Em                        B7
  .     .     .     .      .     .     .      .      
E|------------------------|-------------------------|
B|------------------------|----------------0--------|
G|------------0-----------|------2-----2/4----4\2-0-|
D|------2--------2-----2--|---1-----1---------------|
A|---2-----2--------2-----| 2------------------------|
E|0-----------------------|-------------------------|

[00:45] (Intro pattern)
  Em                        B7
  .     .     .     .      .     .     .     .      
E|------------------------|------------------------|
B|------------------0-----|------------0-----------|
G|------------0--------0--|------2--------2-----2--|
D|------2--------2--------|---1-----1--------1-----|
A|---2-----2--------------| 2-----------------------|
E|0-----------------------|------------------------|

[00:51]
  Em                        B7
  .     .     .     .      .     .     .      .      
E|------------------------|-------------------------|
B|------------------0-----|----------------0--------|
G|------------0--------0--|------2----2/4----4\2--0-|
D|------2--------2--------|---1-----1---------------|
A|---2-----2--------------| 2------------------------|
E|0-----------------------|-------------------------|


[Chorus]
Em - D - D - C


[2nd verse] 
[01:16]
                           B7
 .     .     .      .      .     .     .     .      
E|--------------12--------|-------------------------|
B|--------------12--------|------------0------------|
G|--------------12--------|------2--------2---------|
D|--------------12--------|---1-----1---------------|
A|------------------------| 2------------------------|
E|------------------------|-------------------------|

[01:21]
  Em                        B7
  .     .     .     .      .     .     .      .      
E|------------------------|-------------------------|
B|------------------------|-------------------------|
G|------------0-----------|---0---------------2-----|
D|------2--------2--------| 3/5--5\3-1-----1------1--|
A|---2-----2--------------|------------2------------|
E|0-----------------------|-------------------------|


[01:26]
  Em                        B7
  .     .     .     .      .     .     .     .      
E|------------------------|------------------------|
B|------------------------|------------0-----------|
G|------------0-----------|------2--------2-----2--|
D|------2--------2-----2--|---1-----1--------1-----|
A|---2-----2--------2-----| 2-----------------------|
E|0-----------------------|------------------------|

[01:31]
  Em                        B7
  .     .     .     .      .     .     .      .      
E|------------------------|-------------------------|
B|------------------0-----|----------------0--------|
G|------------0--------0--|------2----2/4----4\2--0-|
D|------2--------2--------|---1-----1---------------|
A|---2-----2--------------| 2------------------------|
E|0-----------------------|-------------------------|

[01:36]
  Em                        B7
  .     .     .     .      .     .     .     .      
E|------------------------|------------------------|
B|------------------------|------------0-----------|
G|------------0-----------|------2--------2-----2--|
D|------2--------2-----2--|---1-----1--------1-----|
A|---2-----2--------2-----| 2-----------------------|
E|0-----------------------|------------------------|

[01:41]
  Em                        B7
  .     .     .     .      .     .     .      .      
E|------------------------|-------------------------|
B|------------------0-----|---------------7---------|
G|------------0--------0--|------2----2/4----4\2--0-|
D|------2--------2--------|---1-----1---------------|
A|---2-----2--------------| 2------------------------|
E|0-----------------------|-------------------------|

[01:46] (Intro pattern)
  Em                        B7
  .     .     .     .      .     .     .     .      
E|------------------------|------------------------|
B|------------------------|------------0-----------|
G|------------0-----------|------2--------2-----2--|
D|------2--------2-----2--|---1-----1--------1-----|
A|---2-----2--------2-----| 2-----------------------|
E|0-----------------------|------------------------|

[01:51]
  Em                        B7
  .     .     .     .      .     .     .      .      
E|------------------------|-------------------------|
B|------------------0-----|-------------------------|
G|------------0--------0--|------2----2/4--4---2--0-|
D|------2--------2--------|---1-----1---------------|
A|---2-----2--------------| 2------------------------|
E|0-----------------------|-------------------------|


[Chorus]
Em - D - D - C


[3rd verse]

[2:27] (Intro pattern)
  Em                        B7
  .     .     .     .      .     .     .     .      
E|------------------------|------------------------|
B|------------------0-----|------------0-----------|
G|------------0--------0--|------2--------2-----2--|
D|------2--------2--------|---1-----1--------1-----|
A|---2-----2--------------| 2-----------------------|
E|0-----------------------|------------------------|

[2:32] (Intro pattern)
  Em                        B7
  .     .     .     .      .     .     .     .      
E|------------------------|------------------------|
B|------------------0-----|------------0-----------|
G|------------0--------0--|------2--------2-----2--|
D|------2--------2--------|---1-----1--------1-----|
A|---2-----2--------------| 2-----------------------|
E|0-----------------------|------------------------|

[2:37] (Intro pattern)
  Em                        B7
  .     .     .     .      .     .     .     .      
E|------------------------|------------------------|
B|------------------0-----|------------0-----------|
G|------------0--------0--|------2--------2-----2--|
D|------2--------2--------|---1-----1--------1-----|
A|---2-----2--------------| 2-----------------------|
E|0-----------------------|------------------------|

[2:42] (Intro pattern)
  Em                        B7
  .     .     .     .      .     .     .     .      
E|------------------------|------------------------|
B|------------------0-----|------------0-----------|
G|------------0--------0--|------2--------2-----2--|
D|------2--------2--------|---1-----1--------1-----|
A|---2-----2--------------| 2-----------------------|
E|0-----------------------|------------------------|

[2:47] (Intro pattern)
  Em                        B7
  .     .     .     .      .     .     .     .      
E|------------------------|------------------------|
B|------------------0-----|------------0-----------|
G|------------0--------0--|------2--------2-----2--|
D|------2--------2--------|---1-----1--------1-----|
A|---2-----2--------------| 2-----------------------|
E|0-----------------------|------------------------|

[2:52]
  Em                        B7
  .     .     .     .      .     .     .       .      
E|------------------------|---------------------------|
B|------------------0-----|------------0-------0------|
G|------------0--------0--|------2--------4/2-----4/2-|
D|------2--------2--------|---1-----1-----------------|
A|---2-----2--------------| 2--------------------------|
E|0-----------------------|---------------------------|

[2:57]
  Em                        B7
  .     .     .     .      .     .     .       .      
E|------------------------|---------------------------|
B|------------------0-----|------------0-------0------|
G|------------0--------0--|------2--------2/4------0--|
D|------2--------2--------|---1-----1-----------------|
A|---2-----2--------------| 2--------------------------|
E|0-----------------------|---------------------------|

[Chorus]
Em - D - D - C
Outros vídeos desta música
    3 exibições
      • ½ Tom
      • Am
      • Bbm
      • Bm
      • Cm
      • C#m
      • Dm
      • Ebm
      • Em
      • Fm
      • F#m
      • Gm
      • G#m
    • Adicionar à lista

    Afinação da cifra

    Afinador online

      0 comentários

      Ver todos os comentários

      Entre para o Cifra Club PRO

      Tenha acesso a benefícios exclusivos no App e no Site

      • Chega de anúncios

      • Badges exclusivas

      • Mais recursos no app do Afinador

      • Atendimento Prioritário

      • Aumente seu limite de lista

      • Ajude a produzir mais conteúdo

      Cifra Club Pro

      Aproveite o Cifra Club com benefícios exclusivos e sem anúncios
      Cifra Club Pro
      Aproveite o Cifra Club com benefícios exclusivos e sem anúncios
      OK