Cifra Club

Loyalty

MandoPony

Cifra: Principal (violão e guitarra)
tom: G
Intro X2
E|--------------2--3--2h3p2--------------------3--------3--------|
B|--------0------------------0-----------3--------3--------3-----|
G|-----------0------------------0-----------0--------0--------0--|
D|-----2------------------------------2--------------------------|
A|--2------------------------------3-----------------------------|
E|---------------------------------------------------------------|

E|--------------3--------3-----------------------3-----|
B|--------3--------3--------3-----------3-----------3--|
G|-----------0--------0--------0-----------2-----------|
D|--------------------------------------------0--------|
A|-----2-----------------------------------------------|
E|--3-----------------------------2--2-----------------|

Intro Guitar 1(Distortion)
E|-----------------------------------------------------------------------------------|
B|-----------------------------------------------------------------------------------|
G|-9-11-11-11-11-11-11-11-11-12-12-7-7-7-7-11-11-11-11-11-11-11-11-12-12-7-7-5-5-4-4-|
D|-x-x--x--x--x--x--x--x--x--x--x--x-x-x-x-x--x--x--x--x--x--x--x--x--x--x-x-x-x-x-x-|
A|-7-9--9--9--9--9--9--9--9--10-10-5-5-5-5-9--9--9--9--9--9--9--9--10-10-5-5-3-3-2-2-|
E|-----------------------------------------------------------------------------------|

E|---------------------------------------------------------------------------------------|
B|---------------------------------------------------------------------------------------|
G|-11-11-11-11-11-11-11-11-12-12-7-7-7-7-11-11-11-11-12-12-12-12-14-14-14-14-12-12-11-11-|
D|-x--x--x--x--x--x--x--x--x--x--x-x-x-x-x--x--x--x--x--x--x--x--x--x--x--x--x--x--x--x--|
A|-9--9--9--9--9--9--9--9--10-10-5-5-5-5-9--9--9--9--10-10-10-10-12-12-12-12-10-10-9--9--|
E|---------------------------------------------------------------------------------------|

E|---------------------------------------------------------------------------------------|
B|---------------------------------------------------------------------------------------|
G|-11-11-11-11-11-11-11-11-12-12-7-7-7-7-11-11-11-11-12-12-12-12-16-16-14-14-12-12-12-12-|
D|-x--x--x--x--x--x--x--x--x--x--x-x-x-x-x--x--x--x--x--x--x--x--x--x--x--x--x--x--x--x--|
A|-9--9--9--9--9--9--9--9--10-10-5-5-5-5-9--9--9--9--10-10-10-10-14-14-12-12-10-10-10-10-|
E|---------------------------------------------------------------------------------------|

E|-----------------------------------------------------------------------------------------|
B|-----------------------------------------------------------------------------------------|
G|-12-12-12-12-11-11-11-11-7-7-7-7-9-9-9-9-11-11-11-11-12-12-12-12-14-14-14-14-12-11-11-11-|
D|-x--x--x--x--x--x--x--x--x-x-x-x-x-x-x-x-x--x--x--x--x--x--x--x--x--x--x--x--x--x--x--x--|
A|-10-10-10-10-9--9--9--9--5-5-5-5-7-7-7-7-9--9--9--9--10-10-10-10-12-12-12-12-10-9--9--9--|
E|-----------------------------------------------------------------------------------------|

Guitar 2(Distortion) X2
E|----------------------------------------------------------------|
B|----------------------------------------------------------------|
G|-9-9-9-9-9-9-9-9-9-9-9-9-9-9-9-9-5-5-5-5-5-5-5-5-5-5-5-5-5-5-5-5|
D|-9-9-9-9-9-9-9-9-9-9-9-9-9-9-9-9-5-5-5-5-5-5-5-5-5-5-5-5-5-5-5-5|
A|-7-7-7-7-7-7-7-7-7-7-7-7-7-7-7-7-3-3-3-3-3-3-3-3-3-3-3-3-3-3-3-3|
E|----------------------------------------------------------------|

E|----------------------------------------------------------------|
B|----------------------------------------------------------------|
G|---------------------------------7-7-7-7-7-7-7-7-7-7-7-7-7-7-7-7|
D|-5-5-5-5-5-5-5-5-5-5-5-5-5-5-5-5-7-7-7-7-7-7-7-7-7-7-7-7-7-7-7-7|
A|-5-5-5-5-5-5-5-5-5-5-5-5-5-5-5-5-5-5-5-5-5-5-5-5-5-5-5-5-5-5-5-5|
E|-3-3-3-3-3-3-3-3-3-3-3-3-3-3-3-3--------------------------------|


Verse 1 X4
Guitar 1
E|-----------------------------------------------------------------|
B|-----------------------------------------------------------------|
G|-----------------5-5-5-5-5-5-5-5-----------------7-7-7-7-7-7-7-7-|
D|-2-2-2-2-2-2-2-2-5-5-5-5-5-5-5-5-5-5-5-5-5-5-5-5-7-7-7-7-7-7-7-7-|
A|-2-2-2-2-2-2-2-2-3-3-3-3-3-3-3-3-5-5-5-5-5-5-5-5-5-5-5-5-5-5-5-5-|
E|-0-0-0-0-0-0-0-0-----------------3-3-3-3-3-3-3-3-----------------|
   . . . . . . . . . . . . . . . . . . . . . . . . . . . . . . . .

Guitar 2
E|-----------------------------------------------------------------|
B|-----------------------------------------------------------------|
G|-9-9-9-9-9-9-9-9-5-5-5-5-5-5-5-5-----------------7-7-7-7-7-7-7-7-|
D|-9-9-9-9-9-9-9-9-5-5-5-5-5-5-5-5-5-5-5-5-5-5-5-5-7-7-7-7-7-7-7-7-|
A|-7-7-7-7-7-7-7-7-3-3-3-3-3-3-3-3-5-5-5-5-5-5-5-5-5-5-5-5-5-5-5-5-|
E|---------------------------------3-3-3-3-3-3-3-3-----------------|
   . . . . . . . . . . . . . . . . . . . . . . . . . . . . . . . .

Pre-chorus 1
E|-----------------------------------------------------------------|
B|-----------------------------------------------------------------|
G|-5-5-5-5-5-5-5-5-7-7-7-7-7-7-7-7---------------------------------|
D|-5-5-5-5-5-5-5-5-7-7-7-7-7-7-7-7-2-2-2-2-2-2-2-2-5-5-5-5-5-5-5-5-| X3
A|-3-3-3-3-3-3-3-3-5-5-5-5-5-5-5-5-2-2-2-2-2-2-2-2-5-5-5-5-5-5-5-5-|
E|---------------------------------0-0-0-0-0-0-0-0-3-3-3-3-3-3-3-3-|

E|---------------------------------|
B|---------------------------------|
G|-5-5-5-5-5-5-5-5-7-7-7-7-7-7-7-7-|
D|-5-5-5-5-5-5-5-5-7-7-7-7-7-7-7-7-|
A|-3-3-3-3-3-3-3-3-5-5-5-5-5-5-5-5-|
E|---------------------------------|

(Clean)
E|--------------2~~~-|
B|--------0----------|
G|-----------0-------|
D|-----2-------------|
A|--2----------------|
E|-------------------|

Chorus
E|-----------------------------------------------------------------------------------|
B|-----------------------------------------------------------------------------------|
G|-9-11-11-11-11-11-11-11-11-12-12-7-7-7-7-11-11-11-11-11-11-11-11-12-12-7-7-5-5-4-4-|
D|-x-x--x--x--x--x--x--x--x--x--x--x-x-x-x-x--x--x--x--x--x--x--x--x--x--x-x-x-x-x-x-|
A|-7-9--9--9--9--9--9--9--9--10-10-5-5-5-5-9--9--9--9--9--9--9--9--10-10-5-5-3-3-2-2-|
E|-----------------------------------------------------------------------------------|

E|---------------------------------------------------------------------------------------|
B|---------------------------------------------------------------------------------------|
G|-11-11-11-11-11-11-11-11-12-12-7-7-7-7-11-11-11-11-12-12-12-12-14-14-14-14-12-12-11-11-|
D|-x--x--x--x--x--x--x--x--x--x--x-x-x-x-x--x--x--x--x--x--x--x--x--x--x--x--x--x--x--x--|
A|-9--9--9--9--9--9--9--9--10-10-5-5-5-5-9--9--9--9--10-10-10-10-12-12-12-12-10-10-9--9--|
E|---------------------------------------------------------------------------------------|

E|---------------------------------------------------------------------------------------|
B|---------------------------------------------------------------------------------------|
G|-11-11-11-11-11-11-11-11-12-12-7-7-7-7-11-11-11-11-12-12-12-12-16-16-14-14-12-12-12-12-|
D|-x--x--x--x--x--x--x--x--x--x--x-x-x-x-x--x--x--x--x--x--x--x--x--x--x--x--x--x--x--x--|
A|-9--9--9--9--9--9--9--9--10-10-5-5-5-5-9--9--9--9--10-10-10-10-14-14-12-12-10-10-10-10-|
E|---------------------------------------------------------------------------------------|

E|-----------------------------------------------------------------------------------------|
B|-----------------------------------------------------------------------------------------|
G|-12-12-12-12-11-11-11-11-7-7-7-7-9-9-9-9-11-11-11-11-12-12-12-12-14-14-14-14-12-11-11-11-|
D|-x--x--x--x--x--x--x--x--x-x-x-x-x-x-x-x-x--x--x--x--x--x--x--x--x--x--x--x--x--x--x--x--|
A|-10-10-10-10-9--9--9--9--5-5-5-5-7-7-7-7-9--9--9--9--10-10-10-10-12-12-12-12-10-9--9--9--|
E|-----------------------------------------------------------------------------------------|

E|------------------------------------------------------------------------------------------|
B|------------------------------------------------------------------------------------------|
G|-11-11-11-11-11-11-11-11-11-11-11-11-11-11-11-11-12-12-12-12-14-14-14-14-16-16-14-14-12-12|
D|-x--x--x--x--x--x--x--x--x--x--x--x--x--x--x--x--x--x--x--x--x--x--x--x--x--x--x--x--x--x-|
A|-9--9--9--9--9--9--9--9--9--9--9--9--9--9--9--9--10-10-10-10-12-12-12-12-14-14-12-12-10-10|
E|------------------------------------------------------------------------------------------|

E|--------------------|
B|--------------------|
G|-11-11-11-11-11-11-9|
D|-x--x--x--x--x--x--x|
A|-9--9--9--9--9--7--7|
E|-------------------7|

Guitar 2(Distortion) X2
E|----------------------------------------------------------------|
B|----------------------------------------------------------------|
G|-9-9-9-9-9-9-9-9-9-9-9-9-9-9-9-9-5-5-5-5-5-5-5-5-5-5-5-5-5-5-5-5|
D|-9-9-9-9-9-9-9-9-9-9-9-9-9-9-9-9-5-5-5-5-5-5-5-5-5-5-5-5-5-5-5-5|
A|-7-7-7-7-7-7-7-7-7-7-7-7-7-7-7-7-3-3-3-3-3-3-3-3-3-3-3-3-3-3-3-3|
E|----------------------------------------------------------------|

E|----------------------------------------------------------------|
B|----------------------------------------------------------------|
G|---------------------------------7-7-7-7-7-7-7-7-7-7-7-7-7-7-7-7|
D|-5-5-5-5-5-5-5-5-5-5-5-5-5-5-5-5-7-7-7-7-7-7-7-7-7-7-7-7-7-7-7-7|
A|-5-5-5-5-5-5-5-5-5-5-5-5-5-5-5-5-5-5-5-5-5-5-5-5-5-5-5-5-5-5-5-5|
E|-3-3-3-3-3-3-3-3-3-3-3-3-3-3-3-3--------------------------------|

E|------------------------------------------------------------------|
B|------------------------------------------------------------------|
G|---------------------------------5-5-5-5-5-5-5-5-5-5-5-5-5-5-5-5-5|
D|-2-2-2-2-2-2-2-2-2-2-2-2-2-2-2-2-5-5-5-5-5-5-5-5-5-5-5-5-5-5-5-5-5|
A|-2-2-2-2-2-2-2-2-2-2-2-2-2-2-2-2-3-3-3-3-3-3-3-3-3-3-3-3-3-3-3-3-3|
E|-0-0-0-0-0-0-0-0-0-0-0-0-0-0-0-0----------------------------------|

E|----------------|
B|----------------|
G|----------------|
D|-2-2-2-2-2-2-9-9|
A|-2-2-2-2-2-2-7-7|
E|-0-0-0-0-0-0-7-7|

Verse
E|-----------------------------------------------------------------|
B|-----------------------------------------------------------------|
G|-----------------5-5-5-5-5-5-5-5-----------------7-7-7-7-7-7-7-7-|
D|-2-2-2-2-2-2-2-2-5-5-5-5-5-5-5-5-5-5-5-5-5-5-5-5-7-7-7-7-7-7-7-7-|X2
A|-2-2-2-2-2-2-2-2-3-3-3-3-3-3-3-3-5-5-5-5-5-5-5-5-5-5-5-5-5-5-5-5-|
E|-0-0-0-0-0-0-0-0-----------------3-3-3-3-3-3-3-3-----------------|
   . . . . . . . . . . . . . . . . . . . . . . . . . . . . . . . .

E|-----------------------------------------------------------------|
B|-----------------------------------------------------------------|
G|-----------------5-5-5-5-5-5-5-5-----------------7-7-7-7-7-7-7-7-|
D|-2-2-2-----------5-5-5-5-5-5-5-5-5-5-5-5-5-5-5-5-7-7-7-7-7-7-7-7-|
A|-2-2-2-----------3-3-3-3-3-3-3-3-5-5-5-5-5-5-5-5-5-5-5-5-5-5-5-5-|
E|-0-0-0---------------------------3-3-3-3-3-3-3-3-----------------|
   . . .                           . . . . . . . . . . . . . . . . 

E|-----------------------------------------------------------------|
B|-----------------------------------------------------------------|
G|-----------------5-5-5-5-5-5-5-5-----------------7-7-7-7-7-7-7-7-|
D|-2-2-2-2-2-2-2-2-5-5-5-5-5-5-5-5-5-5-5-5-5-5-5-5-7-7-7-7-7-7-7-7-|
A|-2-2-2-2-2-2-2-2-3-3-3-3-3-3-3-3-5-5-5-5-5-5-5-5-5-5-5-5-5-5-5-5-|
E|-0-0-0-0-0-0-0-0-----------------3-3-3-3-3-3-3-3-----------------|
   . . . . . . . . . . . . . . . . . . . . . . . . . . . . . . . .


Pre-chorus
Guitar 1
E|----------------------------------------------------------------------------|
B|----------------------------------------------------------------------------|
G|-5-5-5-5-7-7-7-7-9-9-9-9-11-11-11-11-11-11-11-11-12-12-12-12-7-7-7-7-7-7-7-7|
D|-x-x-x-x-x-x-x-x-x-x-x-x-x--x--x--x--x--x--x--x--x--x--x--x--x-x-x-x-x-x-x-x|
A|-3-3-3-3-5-5-5-5-7-7-7-7-9--9--9--9--9--9--9--9--10-10-10-10-5-5-5-5-5-5-5-5|
E|----------------------------------------------------------------------------|

E|----------------------------------------------------------------------------|
B|----------------------------------------------------------------------------|
G|-5-5-5-5-7-7-7-7-9-9-9-9-11-11-11-11-11-11-11-11-12-12-12-12-7-7-7-7-7-7-7-7|
D|-x-x-x-x-x-x-x-x-x-x-x-x-x--x--x--x--x--x--x--x--x--x--x--x--x-x-x-x-x-x-x-x|
A|-3-3-3-3-5-5-5-5-7-7-7-7-9--9--9--9--9--9--9--9--10-10-10-10-5-5-5-5-5-5-5-5|
E|----------------------------------------------------------------------------|

E|------------------------------------------------------------------------------------|
B|------------------------------------------------------------------------------------|
G|-5-5-5-5-7-7-7-7-9-9-9-9-11-11-11-11-11-11-11-11-12-12-12-12-16-16-14-14-12-12-11-11|
D|-x-x-x-x-x-x-x-x-x-x-x-x-x--x--x--x--x--x--x--x--x--x--x--x--x--x--x--x--x--x--x--x-|
A|-3-3-3-3-5-5-5-5-7-7-7-7-9--9--9--9--9--9--9--9--10-10-10-10-14-14-12-12-10-10-9--9-|
E|------------------------------------------------------------------------------------|

E|--------------------------------------------------------------------------------------|
B|--------------------------------------------------------------------------------------|
G|-5-5-5-5-7-7-7-7-9-9-9-9-11-11-11-11-11-11-11-11-11-11-11-11-11-11-11-11--------------|
D|-x-x-x-x-x-x-x-x-x-x-x-x-x--x--x--x--x--x--x--x--x--x--x--x--x--x--x--x---------------|
A|-3-3-3-3-5-5-5-5-7-7-7-7-9--9--9--9--9--9--9--9--9--9--9--9--9--9--9--9---------------|
E|------------------------------------------------------------------------15\\\\\\\\\\\\|

Guitar 2
E|-----------------------------------------------------------------|
B|-----------------------------------------------------------------|
G|-5-5-------------7-7---------------------------------------------|
D|-5-5-------------7-7-------------2-2-------------5-5-------------|
A|-3-3-------------5-5-------------2-2-------------5-5-------------|
E|---------------------------------0-0-------------3-3-------------|

E|-----------------------------------------------------------------|
B|-----------------------------------------------------------------|
G|-5-5-5-5-5-5-5-5-7-7-7-7-7-7-7-7---------------------------------|
D|-5-5-5-5-5-5-5-5-7-7-7-7-7-7-7-7-2-2-2-2-2-2-2-2-5-5-5-5-5-5-5-5-| X3
A|-3-3-3-3-3-3-3-3-5-5-5-5-5-5-5-5-2-2-2-2-2-2-2-2-5-5-5-5-5-5-5-5-|
E|---------------------------------0-0-0-0-0-0-0-0-3-3-3-3-3-3-3-3-|

E|----------------------------------|
B|----------------------------------|
G|----------------------------------|
D|-2-2-2-2-2-2-2-2-2-2-2-2-2-2-2-2-2|
A|-2-2-2-2-2-2-2-2-2-2-2-2-2-2-2-2-2|
E|-0-0-0-0-0-0-0-0-0-0-0-0-0-0-0-0-0|
   . . . . . . . . . . . . . . . . .



Chorus 2
Guitar 1 & 2
E|----------------------------------------------------------------\
B|---------------------------------------------------------------- \
G|---------------------------------5-5-5-5-5-5-5-5-5-5-5-5-5-5-5-5  \
D|-2-2-2-2-2-2-2-2-2-2-2-2-2-2-2-2-5-5-5-5-5-5-5-5-5-5-5-5-5-5-5-5   \
A|-2-2-2-2-2-2-2-2-2-2-2-2-2-2-2-2-3-3-3-3-3-3-3-3-3-3-3-3-3-3-3-3    \
E|-0-0-0-0-0-0-0-0-0-0-0-0-0-0-0-0--------------------------------     \
                                                                        \
                                                                         X2
                                                                        /
E|----------------------------------------------------------------     /
B|----------------------------------------------------------------    /
G|---------------------------------7-7-7-7-7-7-7-7-7-7-7-7-7-7-7-7   /
D|-5-5-5-5-5-5-5-5-5-5-5-5-5-5-5-5-7-7-7-7-7-7-7-7-7-7-7-7-7-7-7-7  /
A|-5-5-5-5-5-5-5-5-5-5-5-5-5-5-5-5-5-5-5-5-5-5-5-5-5-5-5-5-5-5-5-5 /
E|-3-3-3-3-3-3-3-3-3-3-3-3-3-3-3-3--------------------------------/

Bridge
E|----------------------------------------------------------------|
B|----------------------------------------------------------------|
G|-5-5-5-5-5-5-5-5-5-5-5-5-5-5-5---------------------------------5|
D|-5-5-5-5-5-5-5-5-5-5-5-5-5-5-5-2-2-2-2-2-2-2-2-2-2-2-2-2-2-2-2-5| X2
A|-3-3-3-3-3-3-3-3-3-3-3-3-3-3-3-2-2-2-2-2-2-2-2-2-2-2-2-2-2-2-2-3|
E|-------------------------------0-0-0-0-0-0-0-0-0-0-0-0-0-0-0-0--|

E|----------------------------------------------------------------|
B|----------------------------------------------------------------|
G|-5-5-5-5-5-5-5-5-5-5-5-5-5-5/7---------------------------------5|
D|-5-5-5-5-5-5-5-5-5-5-5-5-5-5/7-2-2-2-2-2-2-2-2-2-2-2-2-2-2-2-2-5|
A|-3-3-3-3-3-3-3-3-3-3-3-3-3-3/5-2-2-2-2-2-2-2-2-2-2-2-2-2-2-2-2-3|
E|-------------------------------0-0-0-0-0-0-0-0-0-0-0-0-0-0-0-0--|

E|----------------------------------------------------------------|
B|----------------------------------------------------------------|
G|-5-5-5-5-5-5-5-5-5-5-5-5-5-5-5-5-7-7-7-7-7-7-7-7-7-7-7-7-7-7-7-7|
D|-5-5-5-5-5-5-5-5-5-5-5-5-5-5-5-5-7-7-7-7-7-7-7-7-7-7-7-7-7-7-7-7|
A|-3-3-3-3-3-3-3-3-3-3-3-3-3-3-3-3-5-5-5-5-5-5-5-5-5-5-5-5-5-5-5-5|
E|----------------------------------------------------------------|

E|--------------------------------|
B|--------------------------------|
G|-7-7-7-7-7-7-7-7-7-7-7-7-7-7-7-7|
D|-7-7-7-7-7-7-7-7-7-7-7-7-7-7-7-7|
A|-5-5-5-5-5-5-5-5-5-5-5-5-5-5-5-5|
E|--------------------------------|
   . . . . . . . . . . . . . . . .


Solo
Guitar 1
E|----------------------------------------------------------------------------------------|
B|----------------------------------------------------------------------------------------|
G|-------------------12-14-14b12-12-12-12-12-12-12h14p12----------------------------------|
D|-------------12-14-------------------------------------12-12-12-12h14p12----------------|
A|-------12-14-------------------------------------------------------------12-14-12\10-10-|
E|-12-15----------------------------------------------------------------------------------|

E|-------------------------------15-12----------------------------|
B|-------------------12-13-13-15-------15-12-15-12----------------|
G|-------------12-14-------------------------------14-12-13b12-12-|
D|-12-14-12-14----------------------------------------------------|
A|----------------------------------------------------------------|
E|----------------------------------------------------------------|

E|----------------------------------------------------------------------------------------|
B|----------------------------------------------------------------------------------------|
G|-------------------12-14-14b12-12-12-12-12-12-12h14p12----------------------------------|
D|-------------12-14-------------------------------------12-12-12-12h14p12----------------|
A|-------12-14-------------------------------------------------------------12-14-12\10-10-|
E|-12-15----------------------------------------------------------------------------------|

E|-------------------------------------------------------|
B|-------------------------------------------------------|
G|----12-12h14p12----12-12h14p12----12h14-12-14bbbbbbb12-|
D|-12-------------12-------------12----------------------|
A|-------------------------------------------------------|
E|-------------------------------------------------------|

E|----------------------------------------------------------------------------|
B|----------------------------------------------------------------------------|
G|-12-12-12-12-12-14-12-------12----------------------------------------------|
D|----------------------12-14----14-12-14-12----12----------------------------|
A|-------------------------------------------14----14-14-12-12-14-12-12\10-10-|
E|----------------------------------------------------------------------------|

E|----------------------------------------------------|
B|----------------------------------------------------|
G|----------------------------------------------------|
D|-------------12-------------------------------------|
A|-12-12-14-14----14-12-12-14p12-14p12-14p12\10-12-10\|
E|----------------------------------------------------|

E|--------------------------------------------------------------------------|
B|--------------------------------------------------------------------------|
G|--------------------------------------------------------------------------|
D|------------------------------------------12-14-14------------------------|
A|-7777999910101010121212121414141415151515---------------------------------|
E|--------------------------------------------------------------------------|

E|----------------------------------------------------------------|
B|-------------------------------------------------13-13-15-15-15-|
G|----------------------12----------12-------12-14----------------|
D|-12h14-12h14-12h14-14----14-12h14----14-14----------------------|
A|----------------------------------------------------------------|
E|----------------------------------------------------------------|

E|-15-12-----------------------------------------19b-19b|
B|-------15-15-12h15p12---------------------------------|
G|----------------------14-14---------------------------|
D|----------------------------12/14-12/14---------------|
A|------------------------------------------------------|
E|------------------------------------------------------|

Guitar 2
E|----------------------------------------------------------------\
B|---------------------------------------------------------------- \
G|-9-9-9-9-9-9-9-9-9-9-9-9-9-9-9-9-5-5-5-5-5-5-5-5-5-5-5-5-5-5-5-5  \
D|-9-9-9-9-9-9-9-9-9-9-9-9-9-9-9-9-5-5-5-5-5-5-5-5-5-5-5-5-5-5-5-5   \
A|-7-7-7-7-7-7-7-7-7-7-7-7-7-7-7-7-3-3-3-3-3-3-3-3-3-3-3-3-3-3-3-3    \
E|----------------------------------------------------------------     \
                                                                        \
                                                                         X2
                                                                        /
E|----------------------------------------------------------------     /
B|----------------------------------------------------------------    /
G|---------------------------------7-7-7-7-7-7-7-7-7-7-7-7-7-7-7-7   /
D|-5-5-5-5-5-5-5-5-5-5-5-5-5-5-5-5-7-7-7-7-7-7-7-7-7-7-7-7-7-7-7-7  /
A|-5-5-5-5-5-5-5-5-5-5-5-5-5-5-5-5-5-5-5-5-5-5-5-5-5-5-5-5-5-5-5-5 /
E|-3-3-3-3-3-3-3-3-3-3-3-3-3-3-3-3--------------------------------/

E|-----------------------------------------------------------------|
B|-----------------------------------------------------------------|
G|-5-5-5-5-5-5-5-5-7-7-7-7-7-7-7-7---------------------------------|
D|-5-5-5-5-5-5-5-5-7-7-7-7-7-7-7-7-2-2-2-2-2-2-2-2-5-5-5-5-5-5-5-5-| X3
A|-3-3-3-3-3-3-3-3-5-5-5-5-5-5-5-5-2-2-2-2-2-2-2-2-5-5-5-5-5-5-5-5-|
E|---------------------------------0-0-0-0-0-0-0-0-3-3-3-3-3-3-3-3-|

E|-----------------|
B|-----------------|
G|-----------------|
D|-2-2-2-2-2-2-2-2-|
A|-2-2-2-2-2-2-2-2-|
E|-0-0-0-0-0-0-0-0-|

Drum Solo
E|-----------------------------------------------------------------|
B|-----------------------------------------------------------------|
G|-----------------5-5-----------------------------7-7-------------|
D|-2-2-------------5-5-------------5-5-------------7-7-------------|
A|-2-2-------------3-3-------------5-5-------------5-5-----55555555|
E|-0-0-----------------------------3-3-----------------------------|
                                                           ........

Bridge 2
E|----------------------------------------------------\
B|---------------------------------------------------- \
G|-9-9---------9-------9-----5-5---------5-------5----  \
D|-9-9---------9-------9-----5-5---------5-------5----   \
A|-7-7---------7-------7-----3-3-3-3-3-3-3-3-3-3-3-3-3    \
E|-----0-0-0-0---0-0-0---0-0--------------------------     \
       . . . .   . . .   . .     . . . .   . . .   . .      \
                                                             X2
                                                            /
E|----------------------------------------------------     /
B|----------------------------------------------------    /
G|---------------------------7-7---------7-------7----   /
D|-5-5---------5-------5-----7-7---------7-------7----  /
A|-5-5---------5-------5-----5-5-5-5-5-5-5-5-5-5-5-5-5 /
E|-3-3-3-3-3-3-3-3-3-3-3-3-3--------------------------/
       . . . .   . . .   . .     . . . .   . . .   . .

Chorus (Clean)
E|--------------2--3--2h3p2--------------------3--------3--------|
B|--------0------------------0-----------3--------3--------3-----|
G|-----------0------------------0-----------0--------0--------0--|
D|-----2------------------------------2--------------------------|
A|--2------------------------------3-----------------------------|
E|---------------------------------------------------------------|

E|--------------3--------3-----------------------3-----|
B|--------3--------3--------3-----------3-----------3--|
G|-----------0--------0--------0-----------2-----------|
D|--------------------------------------------0--------|
A|-----2-----------------------------------------------|
E|--3-----------------------------2--2-----------------|

E|--------------2--3--2h3p2--------------------3--------3--------|
B|--------0------------------0-----------3--------3--------3-----|
G|-----------0------------------0-----------0--------0--------0--|
D|-----2------------------------------2--------------------------|
A|--2------------------------------3-----------------------------|
E|---------------------------------------------------------------|

E|--------------3--------3--------|
B|--------3--------3--------3-----|
G|-----------0--------0--------0--|
D|--------------------------------|
A|-----2--------------------------|
E|--3-----------------------------|

(Distortion)
E|---------------------------|
B|---------------------------|
G|-7-7-7-7-----7-7-7-7-----7~|
D|-7-7-7-7-----7-7-7-7-----7~|
A|-5-5-5-5-----5-5-5-5-----5~|
E|---------------------------|



Chorus
Guitar 1 & 2
E|----------------------------------------------------------------\
B|---------------------------------------------------------------- \
G|---------------------------------5-5-5-5-5-5-5-5-5-5-5-5-5-5-5-5  \
D|-2-2-2-2-2-2-2-2-2-2-2-2-2-2-2-2-5-5-5-5-5-5-5-5-5-5-5-5-5-5-5-5   \
A|-2-2-2-2-2-2-2-2-2-2-2-2-2-2-2-2-3-3-3-3-3-3-3-3-3-3-3-3-3-3-3-3    \
E|-0-0-0-0-0-0-0-0-0-0-0-0-0-0-0-0--------------------------------     \
                                                                        \
                                                                         X4
                                                                        /
E|----------------------------------------------------------------     /
B|----------------------------------------------------------------    /
G|---------------------------------7-7-7-7-7-7-7-7-7-7-7-7-7-7-7-7   /
D|-5-5-5-5-5-5-5-5-5-5-5-5-5-5-5-5-7-7-7-7-7-7-7-7-7-7-7-7-7-7-7-7  /
A|-5-5-5-5-5-5-5-5-5-5-5-5-5-5-5-5-5-5-5-5-5-5-5-5-5-5-5-5-5-5-5-5 /
E|-3-3-3-3-3-3-3-3-3-3-3-3-3-3-3-3--------------------------------/

Outro
E|---
B|---
G|---
D|-2~
A|-2~
E|-0~
00:00 / 00:00
Outros vídeos desta música
Repetir
Outros vídeos desta música
Composição de Mandopony,AcousticBrony
Colaboração e revisão:
  • Bernardo Moreira
35 exibições
    • ½ Tom
    • A
    • Bb
    • B
    • C
    • Db
    • D
    • Eb
    • E
    • F
    • F#
    • G
    • Ab
  • Adicionar à lista

    0 comentários

    Ver todos os comentários

    Entre para oCifra Club PRO

    Tenha acesso a benefícios exclusivos no App e no Site

    • Chega de anúncios

    • Prioridade de compra em lançamentos

    • Mais recursos no app do Afinador

    • Atendimento Prioritário

    • Descontos nos produtos Cifra Club

    • Ajude a produzir mais conteúdo

    00:00 / 00:00

    Cifra Club Pro

    Aproveite o Cifra Club com benefícios exclusivos e sem anúncios
    Cifra Club Pro
    Aproveite o Cifra Club com benefícios exclusivos e sem anúncios
    OK