Cifra Club

I See The Light

Mandy Moore

Cifra: Principal (violão e guitarra)
Selo Cifra Club: esta cifra foi revisada para atender aos critérios oficiais da nossa Equipe de Qualidade.
tom: F
[Intro] C

[Tab - Intro]

E|---------0---------------3---0------------|
B|-----1-------1-------1--------------------|
G|---0---0---0---0---0---0---0---0----------| (2x)
D|------------------------------------------|
A|-3---------------3------------------------|
E|------------------------------------------|

[Primeira Parte]

[Tab - Primeira Parte]

Parte 1 de 3
   C                F4(9)
E|------------------------------------------|
B|---------1-----1------0---1---1-----------|
G|-----0-------0------0---0---0-------------| (2x)
D|---2---2---2------3-----------------------|
A|-3----------------------------------------|
E|------------------------------------------|

Parte 2 de 3
   F              C/E     F       G
E|---------1--------------------0-----------|
B|-----1-------1------1-------1-------3-----|
G|---2---2---2------0---0---2-------4-------|
D|-3--------------2-------------------------|
A|------------------------------------------|
E|------------------------1-------3---------|

Parte 3 de 3
   C        D2     G7(4)      G7
E|----------0---0---------------------------|
B|-------1---------------1-0---0------------|
G|-----0------2--------0-----0--------------|
D|---2------0--------3-----3----------------|
A|-3----------------------------------------|
E|-----------------3------------------------|

C
All those days
 F4(9)             C
Watching from the windows
C
  All those years
F4(9)           C
Outside looking in
F
All that time
 C/E         F  G
Never even kno_wing
 C         D2        G7(4)  G7
Just how blind I've been

 C
Now I'm here
  F/C             C
Blinking in the starlight
C                F/C        C
  Now I'm here, suddenly I see
  F                 Em
Standing here, it`s oh, so clear
      Am       D7       G
I'm where I'm meant to be

[Refrão 1]

        F               C/E
And at last, I see the light
          G7               C4  C
And it's like the fog has lif_ted
        F               C
And at last, I see the light
          E7              Am
And it's like the sky is new
          F                  C
And it's warm and real and bright
         Em                F
And the world has somehow    shifted
C            F/C               C
All at once, everything looks different
 F       G      C
Now that I see you

[Solo] C  F4(9)  F  C/E
       F  G  C  D7  G

[Tab - Solo]

Parte 1 de 3
   C          F4(9)
E|---------0----------0---------------------|
B|-----1----------0-------------------------|
G|---0---0------0---0-----------------------| (2x)
D|------------3-----------------------------|
A|-3----------------------------------------|
E|------------------------------------------|

Parte 2 de 3
  F           C/E      F       G
E|---------1-----------------0--------------|
B|-----1----------0--------1-------3--------|
G|---2---2------0---0----2-------4----------|
D|-3----------2-----------------------------|
A|------------------------------------------|
E|---------------------1-------3------------|

Parte 3 de 3
   C        D7       G
E|------------------------------------------|
B|--------------1------1-----0--------------|
G|-----0------2---2--------0----------------|
D|---2---2--0------------0------------------|
A|-3----------------------------------------|
E|-------------------3----------------------|

[Segunda Parte]

Eb
All those days
  Eb7M(4/9)     Eb
Chasing down a daydream
Eb                   Eb7M(4/9)    Eb
   All those years, living in a blur
Ab                 Eb/G        Ab  Bb
   All that time, never truly see__ing
  Eb   F7          Bb4     Bb
Things   the way they were

 Eb
Now she's here
  Eb7M(4/9)      Eb
Shining in the starlight
Eb                  Eb7M(4/9)   Eb
   Now she's here, suddenly I know
Ab             Gm  
If she's here, it's crystal clear
    Cm            F       Bb4  Bb
I'm    where I'm meant to go

[Refrão 2]

        Ab              Eb/G
And at last, I see the light
          Bb4      Bb      Eb
And it's like the fog has lifted
        Ab              Eb/G
And at last, I see the light
          G7              Cm
And it's like the sky is new
          Ab                 Eb
And it's warm and real and bright
         Gm                 Ab
And the world has somehow shifted

[Final]

[Tab - Final]

Parte 1 de 4
   Eb         Eb/Ab    Eb/G
E|---------3-----------------3--------------|
B|----------------3--------4-----4----------|
G|-----3--------3---3----3-----3------------|
D|---5---5----6--------5--------------------|
A|-6----------------------------------------|
E|------------------------------------------|

Parte 2 de 4
   Ab     Bb4/F   Bb/F
E|--------------3---------------------------|
B|-----4------4---3-------------------------|
G|---5------3-------------------------------|
D|-6------3---------------------------------|
A|------------------------------------------|
E|------------------------------------------|

Parte 3 de 4
   Eb       Gm/D     Cm     Cm9(11)
E|------------------------------3-5---------|
B|-------4--------3------4----3-------------|
G|-----3--------3-----------5---------------|
D|---5--------5--------5--------------------|
A|-6--------5--------3----------------------|
E|------------------------------------------|

Parte 4 de 4
   Eb
E|-------------3-----------------------3----|
B|---------4---------------4---------4------|
G|-----3-----3---3-----3-----3-----3--------|
D|---5---5-----------5---5-------5----------|
A|-6---------------6-----------6------------|
E|------------------------------------------|

Eb
All at once
Eb/Ab          Eb/G
Everything is different
 Ab      Bb     Bb
Now that I see you

( Eb  Gm/D  Cm  Cm9(11) )

 Bb4     Bb     Eb
Now that I see you
Outros vídeos desta música
    24.746 exibições
    • Simplificar cifra
      • ½ Tom
      • A
      • Bb
      • B
      • C
      • Db
      • D
      • Eb
      • E
      • F
      • F#
      • G
      • Ab
    • Adicionar à lista

    Afinação da cifra

    Afinador online

      0 comentários

      Ver todos os comentários

      Entre para o Cifra Club PRO

      Tenha acesso a benefícios exclusivos no App e no Site

      • Chega de anúncios

      • Badges exclusivas

      • Mais recursos no app do Afinador

      • Atendimento Prioritário

      • Aumente seu limite de lista

      • Ajude a produzir mais conteúdo

      Cifra Club Pro

      Aproveite o Cifra Club com benefícios exclusivos e sem anúncios
      Cifra Club Pro
      Aproveite o Cifra Club com benefícios exclusivos e sem anúncios
      OK