Cifra Club

Seja Para Mim

Maneva

Cifra: Principal (violão e guitarra)
Tom: F
[Intro] Bb7M
        Bb7M  Am  Bb7M  Am

   Bb7M
E|-------------0--------------0----|
B|-----------6--------------6------|
G|---------5--------------5--------|
D|-------0--------------0----------|
A|-----5--------------5------------|
E|-5/6------------5/6--------------|

E|---------------------------------|
B|-3/5--6~--3/5--6~----------------|
G|-3/5--7~--3/5--7~--7/9-5--5/7-5--|
D|---------------------------------|
A|---------------------------------|
E|---------------------------------|

E|---------------------------------|
B|-----1------1------1------1------|
G|---0------0------0------0--------|
D|-3------2------0-----------------|
A|----------------------3----------|
E|---------------------------------|

E|---------------------------------|
B|-3/5--6~--3/5--6~----------------|
G|-3/5--7~--3/5--7~--7/9-5--5/7-5--|
D|---------------------------------|
A|---------------------------------|
E|---------------------------------|

E|---------------------------------|
B|-----1------1------1------1------|
G|---0------0------0------0--------|
D|-3------2------0-----------------|
A|----------------------3----------|
E|---------------------------------|

[Primeira Parte]

Bb7M                            Am
   Seja para mim o que você quiser
Contanto que seja o meu amor
Bb7M                                        Am
   Estou indo te buscar, mas estou indo a pé
Prende teu cabelo porque tá calor
Bb7M                                   Am
   Traga na tua essência teu jeito mulher
E nos teus lábios todo seu sabor
Bb7M                                   Am
   Mostre nos seus olhos que você me quer
E na tua alma todo seu valor

[Pré-Refrão]

Bb7M                             Am
   Quero toda calma do teu cafuné
Todas as promessas de um amor

[Refrão]

     Gm
Que seja o nosso jeito
 Am
Mesmo com defeitos
 Bb7M            C
Supere os medos seus

[Segunda Parte]

Bb7M                                Am
   Vamos levar a vida do jeito que der
   Pegar a estrada e fazer amor
Bb7M                                    Am
   Nós dois de mãos dadas lá em São Thomé
Ou num fim de tarde no Arpoador
Bb7M                                Am
   Eu quero que seja o que você quiser
Se fizer frio eu sou teu edredom
Bb7M                              Am
   Se você cair, eu te coloco em pé
Vou te ensinar como viver e bom

[Pré-Refrão]

Bb7M                            Am
   Quero toda calma do teu cafuné
Todas as promessas de um amor

[Refrão]

     Gm
Que seja o nosso jeito
 Am
Mesmo com defeitos
 Bb7M            C
Supere os medos seus

( Bb7M  Am )
( Bb7M  Am )

E|---------------------------------|
B|-3/5--6~--3/5--6~----------------|
G|-3/5--7~--3/5--7~--7/9-5--5/7-5--|
D|---------------------------------|
A|---------------------------------|
E|---------------------------------|

E|---------------------------------|
B|-----1------1------1------1------|
G|---0------0------0------0--------|
D|-3------2------0-----------------|
A|----------------------3----------|
E|---------------------------------|

E|---------------------------------|
B|-3/5--6~--3/5--6~----------------|
G|-3/5--7~--3/5--7~--7/9-5--5/7-5--|
D|---------------------------------|
A|---------------------------------|
E|---------------------------------|

E|---------------------------------|
B|-----1------1------1------1------|
G|---0------0------0------0--------|
D|-3------2------0-----------------|
A|----------------------3----------|
E|---------------------------------|

[Pré-Refrão]


Bb7M                            Am
   Quero toda calma do teu cafuné
Todas as promessas de um amor

[Refrão]

     Gm
Que seja o nosso jeito
 Am
Mesmo com defeitos
 Bb7M            C
Supere os medos seus

[Pré-Refrão]

Bb7M                            Am
   Quero toda calma do teu cafuné
Todas as promessas de um amor

[Refrão]

     Gm
Que seja o nosso jeito
 Am
Mesmo com defeitos
 Bb7M            C
Supere os medos seus

[Final]

   Bb7M
E|-------------0--------------0----|
B|-----------6--------------6------|
G|---------5--------------5--------|
D|-------0--------------0----------|
A|-----5--------------5------------|
E|-5/6------------5/6--------------|
exibições 167.325
Acordes para:
    Colaboração e revisão:

    0 comentários

    mostrar mais comentários

    Conseguiu tocar?

    21 tocaram 11 ainda não

    Grave um vídeo tocando Seja Para Mim e mande pra gente!

    00:00 / 00:00
    outros vídeos desta música
    repetir qualidade Automático
    Outros vídeos desta música
    00:00 / 00:00
    Automático
    OK