Cifra Club

Rendition

Manic Street Preachers

Cifra: Principal (violão e guitarra)
Selo Cifra Club: esta cifra foi revisada para atender aos critérios oficiais da nossa Equipe de Qualidade.
tom: C#m
[Intro]
E|-------------------------------------------------------------|
B|-----------------5--7b9r7-5--------------5--7b9r7--5--7-7b9v-|
G|-s/6v-4h6-------------------5---4h6--------------------------|
D|-------------------------------------------------------------|
A|-------------------------------------------------------------|
E|-------------------------------------------------------------|

E|-------------------------------------------------------|
B|------5--7b9r7--5--4--------5--7b9r7--5-----5----------|
G|-4h6--------------------4h6-----------------6------5s/-|
D|-------------------------------------------------------|
A|-------------------------------------------------------|
E|-------------------------------------------------------|

[Verse]

E C#m B Run
E|--------------------------------|
B|--------------------------------|
G|-9----18---16---13---11-6---4---|
D|-9----------------------6---4---|
A|-7----16---14---11---9--4---2---|
E|-0------------------------------|

E C#m B
Rendition, rendition, blame it on the coalition
E C#m B
All the emeralds that are missing, oh I wish we still had Jack Lemon
A Am E
Rendition, rendition I never knew the sky was a prison
C#m A Am
It's a long hard revolution, oh good god I feel like a liberal

[Chorus Tab]
E|-------------------------0-----------------------------|
B|-------------------------0---------------5-------------|
G|-2---2-------------------1---------------6-----4-----2-|
D|-2---2--------------2----2--------6------6-----4-----2-|
A|-0---0--------------2----2--------6------4-----2-----0-|
E|----------4----2----0----0--------4--------------------|

[Chorus Chords]
A (G# - F#) E
For tomorrow I will beg, steal and borrow
G#m C#mB - A
And at the moment im jumping at sorrow
A (G# - F#) E
I wish I knew what I did wrong
G#m C#mB - A
Can anybody hear the screaming of us?
Am
The screaming of us
E
In the long hard revolution

[Verse as before]
Rendition, rendition, blame it on the coalition
The CIA will stay invisible, oh good god I sound like a liberal
Rendition, rendition I never knew the sky was a prison
It's a long hard revolution, oh good god I feel like a liberal

[Chorus]
For tomorrow I will beg, steal and borrow
And at the moment im jumping at sorrow
I wish I knew what I did wrong
Can anybody hear the screaming of us? The screaming of us
In the long revolution

For tomorrow I will beg, steal and borrow
And at the moment im jumping at sorrow
I wish I knew what I did wrong
Can anybody hear the screaming of us? The screaming of us
In the long revolution

Back to main riff

Then

Solo with chords A and E repeated underneath

nb. improvise around this, its by no means perfect.

E|---------------------------------------------------------------------|
B|-------------------------------------------9h12p9--------------------|
G|-----------------------------9-9h11--11-----------9h11p9-------------|
D|-------9h11p9---9h11p9h11-11------------11---------------9h11p9------|
A|--9h11--------11------------------------------------------------11-9-|
E|---------------------------------------------------------------------|
Outros vídeos desta música
    4 exibições
      • ½ Tom
      • Am
      • Bbm
      • Bm
      • Cm
      • C#m
      • Dm
      • Ebm
      • Em
      • Fm
      • F#m
      • Gm
      • G#m
    • Adicionar à lista

    Afinação da cifra

    Afinador online

      0 comentários

      Ver todos os comentários

      Conseguiu tocar?

      0Tocaram0Ainda não

      Grave um vídeo tocando Rendition e nos envie!

      Toque também

      1. Imagem do artista AshJesus Says Intro Ash
      2. Imagem do artista SuedeTrash Suede
      3. Imagem do artista James Dean BradfieldBad Boys And Painkillers James Dean Bradfield
      4. Imagem do artista Nicky WireDerek Jarmans Garden Nicky Wire

      Entre para o Cifra Club PRO

      Tenha acesso a benefícios exclusivos no App e no Site

      • Chega de anúncios

      • Badges exclusivas

      • Mais recursos no app do Afinador

      • Atendimento Prioritário

      • Aumente seu limite de lista

      • Ajude a produzir mais conteúdo

      Cifra Club Pro

      Aproveite o Cifra Club com benefícios exclusivos e sem anúncios
      Cifra Club Pro
      Aproveite o Cifra Club com benefícios exclusivos e sem anúncios
      OK