Cifra Club

Underdogs

Manic Street Preachers

Cifra: Principal (violão e guitarra)
Selo Cifra Club: esta cifra foi revisada para atender aos critérios oficiais da nossa Equipe de Qualidade.
tom: F
    Intro & Verse

E|---------|---------|-------|--------|--------|-------|-------|-------|-------|
B|---------|---------|-------|--------|--------|-------|-------|-------|-8-----|
G|---------|---------|-------|-7------|-2------|-9-----|-4-----|-7-----|-8-----|
D|-3-3-3-3-|-3-3-3-3-|-------|-8------|-3------|-10----|-5-----|-8-----|-8-----|
A|-3-3-3-3-|-3-3-3-3-|-------|-8------|-3------|-10----|-5-----|-8-----|-6-----|
E|-1-1-1-1-|-1-1-1-1-|-------|-6------|-1------|-8-----|-3-----|-6-----|-------|
 Bridge             Chorus:  Bb       F        C       G       Bb      D#
                             And like the underdogs we are..

E|-----------------|-----------------|------------------|--------------------|---|
B|-----------------|-----------------|------------------|--------------------|---|
G|-9-9-9-9-9-9-9-9-|-9-9-9-9-9-9-9-9-|--3-2-0-----------|--------------------|---|
D|-1010101010101010|-1010101010101010|--------3v-2-2v---|--------------------|---|
A|-1010101010101010|-1010101010101010|------------------|--------------------|---|
E|-8-0-8-0-8-0-8-0-|-8-0-8-0-8-0-8-0-|------------------|--------------------|---|
 C                                   Solo Over Chorus   End on an rptd. F
Outros vídeos desta música
    4 exibições
      • ½ Tom
      • A
      • Bb
      • B
      • C
      • Db
      • D
      • Eb
      • E
      • F
      • F#
      • G
      • Ab
    • Adicionar à lista

    Afinação da cifra

    Afinador online

      0 comentários

      Ver todos os comentários

      Conseguiu tocar?

      0Tocaram0Ainda não

      Grave um vídeo tocando Underdogs e nos envie!

      Toque também

      1. Imagem do artista AshJesus Says Intro Ash
      2. Imagem do artista SuedeTrash Suede
      3. Imagem do artista James Dean BradfieldBad Boys And Painkillers James Dean Bradfield
      4. Imagem do artista Nicky WireDerek Jarmans Garden Nicky Wire

      Entre para o Cifra Club PRO

      Tenha acesso a benefícios exclusivos no App e no Site

      • Chega de anúncios

      • Badges exclusivas

      • Mais recursos no app do Afinador

      • Atendimento Prioritário

      • Aumente seu limite de lista

      • Ajude a produzir mais conteúdo

      Cifra Club Pro

      Aproveite o Cifra Club com benefícios exclusivos e sem anúncios
      Cifra Club Pro
      Aproveite o Cifra Club com benefícios exclusivos e sem anúncios
      OK