Cifra Club

Pleasure Slave

Manowar

Cifra: Principal (violão e guitarra)
tom: A
-|---------------------------------------|------------------------------------|
-|---------------------------------------|------------------------------------|
-|---------------------------------------|------------------------------------|
-|-2----------------------2-2------7--4--|------------------------------------|
-|-2----5-3-2-0-----------0-0------5--2--|------------------------------------|
-|-0------------3-0---2-3----------------|------------------------------------|
Main Riff (4x) 

-|----------------------------------------------------------|-----------------|
-|--------5--------------7--------------9-------------------|-----------------|
-|-5--------5-----7--------7-----9--------9--------9--7--5--|-----------------|
-|-5----5-----5---7----7-----7---9----9-----9------9--7--5--|-----------------|
-|-3--3-----------5--5-----------7--7---------7----7--5--3--|-----------------|
-|----------------------------------------------------------|-----------------|
Part I (2x) 

-|----------------------------------------------------------------------------|
-|--------5--------------7----------------------5--------------7------A long--|
-|-5--------5-----7--------7-----9p--7p--5--------5-----7--------7----pause---|
-|-5----5-----5---7----7-----7---9p--7p--5----5-----5---7----7-----7--here...-|
-|-3--3-----------5--5-----------7p--5p--3--3-----------5--5------------------|
-|----------------------------------------------------------------------------|

-|--------------------|-----------------------|-------------------------------|
-|--------------------|-----------------------|-------------------------------|
-|-9-9-9-9-9-9-9-9-9--|-Chorus = Main Riff 4x-|------Pre-Solo = E-------------|
-|-9-9-9-9-9-9-9-9-9--|-----------------------|------Solo = Main Riff---------|
-|-7-7-7-7-7-7-7-7-7--|-----------------------|-------------------------------|
-|--------------------|-----------------------|-------------------------------|
p.m.

Play the main riff till the end.

Standard Tuning

|--------------------------15\\--|-------------------------------------------|
|--------------------------------|-------------------------------------------|
|------------------12------------|-2(4)-2(4)-2(4)-2(4)-2(4)-2(4)-0-2-0---2-0-|
|------------------12------------|-------------------------------------2-----|
|--------------------------------|-------------------------------------------|
|-0\\(bend-down)-----------------|-------------------------------------------|

|----------------------------------------|-----------------------------------|
|----------------------------------------|-----------------------------------|
|---2-0---2-0-----7-4---7-4---7-4---7-4--|-12-9----12-9----12\\/\\/\\/\\/\\/-|
|-2-----2-----2-------7-----7-----7----7-|------12------12-------------------|
|----------------------------------------|-----------------------------------|
|----------------------------------------|-----------------------------------|

|-10(12)---------------------------------------------------------------------|
|------------------------------------------------5-8(10)-br-5----------------|
|---------12(14)///////\\/\\/\\--------------5-7--------------7-5------------|
|----------------------------------------5-7----------------------7-5-------5|
|--------------------------------2-----7------------------------------7-5-7--|
|----------------------------------------------------------------------------|

|-------------------------------------8/////-|-------------------------------|
|-----------------------8(10)-br-5----8/////-|-------------------------------|
|-----------5-7-5---5-7----------------------|----12-14(16)-14(16)-12-14-12--|
|-7-5---5-7-------7--------------------------|-14----------------------------|
|-----7--------------------------------------|-------------------------------|
|--------------------------------------------|-------------------------------|

|------15(17)-12-15-12-----------------------|----------12(14)---------------------|
|----------------------15-12-----------------|-------------------------------------|
|----------------------------14(16)-br-12----|-10(12)-9----------------------------|
|-14-----------------------------------------|-------------------------------------|
|-----------------------------------------14-|-------------------------------------|
|--------------------------------------------|-----------------0-\\/\\/\\/\\/\\/\\/|

|----------------------------------------------------------------------------|
|----------------------------------------------------------------------------|
|-----------12-14(16)-br-12----------------12-14(16)-br-12-------------------|
|-----12-14-----------------14-12----12-14-----------------------------------|
|--14-----------------------------14-----------------------------------------|
|----------------------------------------------------------------------------|
00:00 / 00:00
Outros vídeos desta música
Repetir
Outros vídeos desta música
Composição de Joey DeMaio
Colaboração e revisão:
  • benedito neto
1.162 exibições
    • ½ Tom
    • A
    • Bb
    • B
    • C
    • Db
    • D
    • Eb
    • E
    • F
    • F#
    • G
    • Ab
  • Adicionar à lista

    0 comentários

    Ver todos os comentários

    Conseguiu tocar?

    0 Tocaram 0 Ainda não

    Grave um vídeo tocando Pleasure Slave e nos envie!

    00:00 / 00:00

    Cifra Club Pro

    Aproveite o Cifra Club com benefícios exclusivos e sem anúncios
    Cifra Club Pro
    Aproveite o Cifra Club com benefícios exclusivos e sem anúncios
    OK