Cifra Club

Alfil

Manuel Garcia

Cifra: Principal (violão e guitarra)
tom: G
B7         B7/F#     B7   C
Hoy he despertado en la mañana
   C/G  C       B7       B7/F#  B7        C C/G C
Oyendo caer el agua como hacia dentro de mí
C C/G C      B7          B7/F#  B7    Em
Si...    y el agua me hablaba sólo de ti
C C/G C      B7          B7/F#  B7    Em
Si...    y el agua me hablaba sólo de ti

B7           B7/F#    B7   C
Hoy he despertado en la mañana
       C/G   C  B7          B7/F#  B7      C C/G C
Y tú secabas apurada en la estufa tu blue jeans
C C/G C   B7      B7/F#  B7      Em
Si...   secabas apurada tu blue jeans
C C/G C   B7      B7/F#  B7      Em
Si...   secabas apurada tu blue jeans

B7              B7/F#      B7   C
Pero encuentras tiempo en una taza
           C/G   C       B7         B7/F#     B7   C C/G C
Que aunque tiene rota el asa, si es perfecta para ti
C C/G C    B7           B7/F#   B7      C       C/G  C
Si...   tú eres la reina que dejó a su rey por un alfil
C C/G C    B7       B7/F#  B7    C       Em
Si...   porque el café lo tomas junto a mí
Outro:
   Em                                                  B7/F#
E|----0-0----0-----0-0----0-----0-0----0-----0-0----0-----2-2----2-----2-2----2--|
B|----0-0----0-----0-0----0-----0-0----0-----0-0----0-----0-0----0-----0-0----0--|
G|----0-0----0-----0-0----0-----0-0----0-----0-0----0-----2-2----2-----2-2----2--|
D|----2-2----2-----2-2----2-----2-2----2-----2-2----2-----1-1----1-----1-1----1--|
A|--------2------------2------------2------------2-------------------------------|
E|-0------------0------------0------------0------------2------2-----2------2-----|
   B7                   Em
E|----2-2----2--------------0-0----0-----0-0----0-|
B|----0-0----0--------------0-0----0-----0-0----0-|
G|----2-2----2--------------0-0----0-----0-0----0-|
D|----1-1----1--------------2-2----2-----2-2----2-|
A|-2------2-----2-0-------------2------------2----|
E|------------------3-2-0-------------0-----------|

B7          B7/F#    B7   C
Hoy he despertado en la mañana
   C/G    C     B7         B7/F# B7    C C/G C
Asomado a la ventana y en éste mismo país
C C/G C      B7          B7/F#     B7    Em
Si...   las flores van marchando en el jardín
C C/G C         B7     B7/F#  B7      Em
Si...   los estudiantes pasan junto a ti

C       C/G C    B7         B7/F#  B7   Em
Pero al fin... redoble de tambores para tí
C    C/G C     B7            B7/F# B7      Em
Se acabó... porque ya se ha secado tu blue jeans
C      C/G C      B7           B7/F#  B7      Em
C'est fini... porque el café lo tomas junto a mí
Final:
E|---------------------------------|
B|-----3-3-----3-3-----5-5-----5-5-|
G|-4-4-----4-4-----5-5-----5-5-----|
D|---------------------------------|
A|---------------------------------|
E|---------------------------------|
Composição de Manuel García
Colaboração e revisão:
  • Pedro Figueiredo
2.728 exibições
    • ½ Tom
    • A
    • Bb
    • B
    • C
    • Db
    • D
    • Eb
    • E
    • F
    • F#
    • G
    • Ab
  • Adicionar à lista

    0 comentários

    Ver todos os comentários

    Conseguiu tocar?

    0 Tocaram 0 Ainda não

    Grave um vídeo tocando Alfil e nos envie!

    00:00 / 00:00
    Outros vídeos desta música
    Repetir Qualidade Automático
    Outros vídeos desta música
    00:00 / 00:00
    Automático

    Cifra Club Pro

    Aproveite o Cifra Club com benefícios exclusivos e sem anúncios
    Cifra Club Pro
    Aproveite o Cifra Club com benefícios exclusivos e sem anúncios
    OK