Cifra Club

Perderse

Manuel Garcia

Cifra: Principal (violão e guitarra)
tom: C
    Gsus      G
E|-------------------------|
B|--------1--------0-------|
G|-------------------------|
D|-----0--------0----------|
A|-------------------------|
E|--3--------3-------------|

   C        C/G
E|-------------------------|
B|--------1--------1-------|
G|-----0--------0----------|
D|-------------------------|
A|--3----------------------|
E|-----------3-------------|

  Am        Am/E
E|-------------------------|
B|--------1--------1-------|
G|-------------------------|
D|-----2--------2----------|
A|--0----------------------|
E|-----------0-------------|

  F
E|-------------------------|
B|--------1--------1-------|
G|-------------------------|
D|-----3--------3----------|
A|-------------------------|
E|--1--------1-------------|




Forma tonta:

Intro: Gsus G (x4)

Gsus G        Gsus  G
Pusieron letreros
     C     C/G   C  C/G
pero yo no sé leer
Gsus  G           Gsus  G
Voy siguiendo flechas
       C       C/G     C  C/G
que me pierden otra vez
   Am   Am/E  Am  Am/E  Gsus  G  Gsus G
me pierden


Llego a los lugares
sin saber cómo llegué
Me digo a mí mismo
por aquí yo ya pasé

   Am Am/E  Am Am/E      F       F    F  F
Lo único            que sé hacer bien
       Gsus  G
es perderme
     Am   Am/E  Am  Am/E   F       F  F  F
Y lo único             que debo hacer
      Gsus  G  Gsus  G
es quererte
   F   F  F  F     Gsus  G  Gsus  G
quererte,      quererte

Me pierdo en mí mismo
y me pierdo en ti también
No sé cómo lo hago
pero me sale tan bien
Perderte, perderte
perderte

Y lo único que debo hacer
es quererte
quererte, quererte




Forma inteligente:

Intro: Gsus (x2)

Gsus
Pusieron letreros
     C
pero yo no sé leer
Gsus
Voy siguiendo flechas
       C
que me pierden otra vez
   Am      Gsus
me pierden


Llego a los lugares
sin saber cómo llegué
Me digo a mí mismo
por aquí yo ya pasé

   Am         F
Lo único que sé hacer bien
       Gsus
es perderme
     Am        F
Y lo único que debo hacer
      Gsus
es quererte
   F         Gsus
quererte, quererte

Me pierdo en mí mismo
y me pierdo en ti también
No sé cómo lo hago
pero me sale tan bien
Perderte, perderte
perderte

Y lo único que debo hacer
es quererte
quererte, quererte
Composição de Manuel García
    • ½ Tom
    • A
    • Bb
    • B
    • C
    • Db
    • D
    • Eb
    • E
    • F
    • F#
    • G
    • Ab
  • Adicionar à lista

    0 comentários

    Ver todos os comentários

    Conseguiu tocar?

    0 Tocaram 0 Ainda não

    Grave um vídeo tocando Perderse e nos envie!

    00:00 / 00:00
    Outros vídeos desta música
    Repetir Qualidade Automático
    Outros vídeos desta música
    00:00 / 00:00
    Automático

    Cifra Club Pro

    Aproveite o Cifra Club com benefícios exclusivos e sem anúncios
    Cifra Club Pro
    Aproveite o Cifra Club com benefícios exclusivos e sem anúncios
    OK