Cifra Club

Aprenda

Home

Marc Broussard

Cifra: Principal (violão e guitarra)
tom: C
(riff)
E|---------------|
B|---------------|
G|---------------|
D|----2--52----52|
A|2-52--2---252--|
E|---------------|

(chorus)
      G                 F#              F                Em
E|--------------------------------------------------------|
B|--------------------------------------------------------|
G|----4-----------------3---------------2----------------1|
D|----5-----------------4---------------3----------------2|
A|----5-----------------4---------------3----------------2|
E|----3-----------------2---------------1----------------0|

(verse)
Em
Rollin down the road going no where guitar packed in the trunk
Am                              G                        Em
Somewhere round mile marker 112 papa started humming the funk
Em
I got a jones in my bones before we know we're singing to the melody
Am                                    G               Em
Stopped the car pulled out the guitar half way to New Orleans

(bridge 1)
Em
This grey hound is delta bound mama
Am            G
baby boy done finally found
Em
This grey hound is delta bound mama
Am            G
baby boy done finally found

his way... (chorus)

(bridge 2) no chords used just bang on your guitar or slap ur knee or something haha

(chorus)
Composição de Drew Ramsey / Marc Broussard / Marshall Altman / Shannon Sanders / Ted Broussard
Colaboração e revisão:
  • Evelyn garcia
518 exibições
    • ½ Tom
    • A
    • Bb
    • B
    • C
    • Db
    • D
    • Eb
    • E
    • F
    • F#
    • G
    • Ab
  • Adicionar à lista

    0 comentários

    Ver todos os comentários

    Conseguiu tocar?

    0 Tocaram 0 Ainda não

    Grave um vídeo tocando Home e nos envie!

    00:00 / 00:00
    outros vídeos desta música
    repetir qualidade Automático
    Outros vídeos desta música
    00:00 / 00:00
    Automático

    Cifra Club Pro

    Aproveite o Cifra Club com benefícios exclusivos e sem anúncios
    Cifra Club Pro
    Aproveite o Cifra Club com benefícios exclusivos e sem anúncios
    OK