Cifra Club

Doce Solidão

Marcelo Camelo

Cifra: Principal
exibições 114.047
Tom: A
Intro: A  C#m7 ( C#m7  Cm7  Bm7 ) E (riff1)
       A  C#m7 ( C#m7  Cm7  Bm7 ) E (riff2)

        A        C#m7                                   Bm7      E
E|--------|---5-4-2---4----------4--3------2-----|-2-0----|-0-----|
B|-1/2--2-|---2-------5----5-----5--4--------3---|-----3--|-----0-|
G|-1/2--2-|---2-------6--6-------6-5-----4-----4-|--------|---1---|
D|--------|--------------------------------------|--------|-------|
A|-0------|-0------------------------------------|-2------|-------|
E|--------|--------------------------------------|--------|-0-----|

Riff 1:
E|----------------------------------------|
B|------------5-----3---------------------|
G|-----2-4/6----6/4-----------------------|
D|-2h4------------------------------------|
A|----------------------------------------|
E|----------------------------------------|

Riff 2:
E|----------------------------------------|
B|----------------------------------------|
G|-----2---4/6---4/6~---------------------|
D|-2h4-----4/6---4/6~---------------------|
A|----------------------------------------|
E|----------------------------------------|

Riff 3:
E|----------------------------------------|
B|----------------------------------------|
G|------2~-----2~-------------------------|
D|--2h4----2h4----------------------------|
A|----------------------------------------|
E|----------------------------------------|

A          C#m7 (C#m7 Cm7 Bm7)           E          A
Posso estar só               mas sou de todo mundo
          C#m7     (C#m7 Cm7 Bm7)           E                 A
Por eu ser    só um              ah nem , ah não , ah nem dá
     C#m7 Cm7 Bm7                        E
Solidão ,     foge que eu te encontro que eu já tenho asa
Dm7 C#m7 Bm7   A  (riff 3)
  Isso   lá é bom ?
Dm7 C#m7 Bm7  E
  Doce  solidão

A C#m7 ( C#m7 Cm7 Bm7 ) E (riff 1)
A C#m7 ( C#m7 Cm7M Bm7 ) E (riff 2)

E|-------------------------------------------------------------4-4/5-0--1/2---|
B|-----------2--5--3--3--------------0-----3--3--------3--6--5--------------2-|
G|--------2--------------2--2--1----------------2--2/4------------------------|
D|--2--2h4--------------------------------------------------------------------|
A|-----------------2--2-----------------0--2--2------------------0------0-----|
E|-----------------------2--2--0--2--4----------------------------------------|

E|---------------------------2--4--2-----0-----------| 
B|-5--4--3--2--1-------1---4-------0--2----0---------| 
G|-6--5--4--3--1-----1-------------0-----------------| 
D|---------------------------------0-----------------| 
A|-0-------------------------------------------------| 
E|---------------------------------------------------|

E|--------------------------------5-0--2----0--------|
B|1/2------------7--4/5------------------2----0--1/2-|
G|----2----------5--6/7--------------------------1/2-|
D|------4-5/6----6--5/6------------------------------|
A|------------------6/7--6--5--4--3----2----0--------|
E|------------0--------------------------------------|

E|----------------7----------0--------2--2/4-------2-------------------------------------------|
B|-----------7-10-7----10/0-----------3--3/5-------3-3-------2/3--3/5--------------------------|
G|-2--4-4/7-------7--7----------------4--4/6-------4-4------------5/7-------6/--2----2/3/4-----|
D|------------------------------------4--4/6-------4-4------------4/6----------------4/5/6-----|
A|---------------------------------------------------5------------5/7-------------4--3/4/5-----|
E|------------------------------0-0-----------0-0--------0-0-----------0-0-----------------------|

E|-----------9------------------------------------|
B|---5--7/9-------10------------------------------|
G|-4-----------9---------9------------------------|
D|-------------------11---------11----------------|
A|--------------------------12--------------------|
E|------------------------------------------------|
Acordes para:

    0 comentários

      mostrar mais comentários

      Conseguiu tocar?

      22tocaram1ainda não

      Grave um vídeo tocando Doce Solidão e mande pra gente!

      00:00 / 00:00
      outros vídeos desta música
      repetirqualidadeautomática
      Outro vídeos desta música
        00:00 / 00:00
        automática
        OK