Cifra Club

Qual é

Marcelo D2

Cifra: Principal
exibições 196.241
Tom: A#
        G                         Bb        C
Ih!!! Eu tenho algo a dizer explicar pra você
        G                         Bb        C
Mas não garanto porém, que engraçado eu serei dessa vez
        G                         Bb        C
Para os parceiros daqui, para os parceiros de lá
        G                         Bb        C
Se você se porta como um homem, um homem

Será que você mantém a conduta
Será que segue firme e forte na luta
Aonde os caminhos da vida vão te levar
Se você aguenta ou naõ, o que será, será

Mas sem esse caô de que tá ruim e não dá
Isso eu já vim, vi e venci, deixa pra lá
Tá ruim pra você, também tá ruim pra mim
Tá ruim pra todo mundo, o jogo é assim

Sem sorte no jogo, feliz no amor
Quem nasceu pra malandragem não quer ser doutor
Há quinhentos anos essa banca manda a vera
Abaixou a cabeça, já era. Então diz:

Solo p/ Refrão

E|-------------------------------------------------------------|
B|-------------------------------------------------------------|
G|---------------0----0----------------------------------------|
D|--------0h3-----------3--3--0------0------------0------------|
A|-------2-------------------------3-----3-3-3-3----3-3-3------|
E|--3--3-----------------------------------------------------3-|

Essa onda que tu tira, qual é ?
Essa marra que tu tem, qual é ?
Tira onda com ninguém, qual é ?
Qual é neguinho ? Qual é ?

Então vem, devagar no miudinho
Então vem, chega devagar no sapatinho
Malandro que sou, não vou vacilar
Sou o que sou e ninguém vai me mudar

Porque eu tenho um escudo contra o vacilão
Papel e caneta e um mike na minha mão
E é isso que é preciso, coragem e humildade
Atitude certa na hora da verdade

O que você precisa para evoluir
Me diz o que você precisa pra sair dai
O samba é o som, Brasil é o lugar
O Incomodado que se mude, eu to aqui pra incomodar

Mas de que lado você samba ?
Você samba de que lado
Na hora que o côro come, é melhor tá preparado
E lembrando de Chico comecei a pensar
Que eu me organizando posso desorganizar

E|-------------------------------------------------------------|
B|-------------------------------------------------------------|
G|---------------0----0----------------------------------------|
D|--------0h3-----------3--3--0------0------------0------------|    2x
A|-------2-------------------------3-----3-3-3-3----3-3-3------|
E|--3--3-----------------------------------------------------3-|

Essa onda que tu tira, qual é ?
Essa marra que tu tem, qual é ?
Tira onda com ninguém, qual é ?
Qual é neguinho ? Qual é ? Me diz
Essa onda que tu tira, qual é ?
Essa marra que tu tem, qual é ?
Tira onda com ninguém, qual é ?
Qual é neguinho ? Qual é ?

Amar como ama um Black Brother...
Falar como fala um Black Brother...
Andar como anda um Black Brother...
Usar sempre o cumprimento Black Brother

Quantas vezes ja cheguei no fim da festa
Quantas vezes o bagaço da laranja é o que resta
Não me dou por vencido, veja a luz no fim do túnel
A corrente tá serrada, como os meus punhos

Vai dizer que você é um perdedor
Daqueles que quando a sua família precisar, cê da no pé
Vai me dizer que você prefere o ódio ou o amor
Então me diz neguinho, qual é ?

E|--------------------------------------------------------------|
B|--------------------------------------------------------------|
G|---------------0----0-----------------------------------------|
D|--------0h3-----------3--3--0------0------------0-------------|
A|-------2-------------------------3-----3-3-3-3----3-3-3-------|
E|--3--3-----------------------------------------------------3--|

Essa onda que tu tira, qual é ?
Essa marra que tu tem, qual é ?
Tira onda com ninguém, qual é ?
Qual é neguinho ? Qual é ?

Qual é? Qual é? Qual é neguinho, Qual é ?

----------- Sentindo os efeitos da fumaça sonora -----------
---------------------------------------------------------------------

A música rola em cima de 3 acordes, e 1 escala.

G    Bb    C

Ela segue a mesma sequencia, só mudando no refrão.
O joguinho de acordes usado é em cima de C e Bb como o exemplo abaixo.

||----------------------------------------------||
||----------------------------------------------||
||--0--x--x--5--x-x--3--------------------------||
||--0--X--X--5--x-x--3--------------------------||
||----------------------------------------------||
||----------------------------------------------||
    G        C      Bb

No Refrão alternando

||----------------------|-----------------------||
||----------------------|-----------------------||
||----------------------|-----------------------||
||----------------3---5-|--5---3----------------||
||--------3---5---------|---------5---3---------||
||-3---6----------------|----------------6---3--||

Obs: Sempre jogando as notas do refrão, jogar uma nota G do jeito
que é tocado a música, não esquecendo da gingada de palheta.
Outra sugestão é criar os próprios riffs em cima da escala pentatônica.

||-----------------------------------------3--6-||
||----------------------------------3---6-------||
||-------------------------3----5---------------||
||----------------3---5-------------------------||
||--------3---5---------------------------------||
||-3---6----------------------------------------||

Acordes para:
    Composição: Davi CorcosColaboração e revisão:
    • Tadeu Fagaraz
    • Icaro Freire
    • Giovana Garcia

    0 comentários

      mostrar mais comentários

      Conseguiu tocar?

      3tocaram0ainda não

      Grave um vídeo tocando Qual é e mande pra gente!

      00:00 / 00:00
      outros vídeos desta música
      repetirqualidadeautomática
      Outro vídeos desta música
        00:00 / 00:00
        automática
        OK